Oops, an error
Loading. Please wait.

Fuqboi bass

version 2
version 2

Whole song

  • This bass tab is based on the studio version of th... Show more
22 views 6 this week
no commentswrite comment
1 2 3 4 5
1 last vote to show rating
add to favorites
×
Save as Personal and add changes to this tab that will be seen only by you. Learn more ›
×
You can save this tab as Personal to edit and correct it or add notes. All changes will be seen only by you. Learn more »
launch autoscroll
font size
0
reset
guitar tuner
edit
Autoscroll
slow
fast
+/-
esc
set tempo
stop
About this tab version
This bass tab is based on the studio version of the song. This is how I'm used to play this song. Was this info helpful? Yes No
[Verse1]
   
G|-----------------|-----------------|-----------------|-----------------|
D|-----------------|-----------------|-----------------|-----------------|
A|-5-------2-------|-5-------2-------|-55------2-------|-55------2-------|
E|----5-------3----|----5-------3----|----5-------3----|----5-------3----|
   1 + 2 + 3 + 4     1 + 2 + 3 + 4     1 + 2 + 3 + 4     1 + 2 + 3 + 4 
 
G|-----------------|-----------------|-----------------|-----------------|
D|-----------------|-----------------|-----------------|-----------------|
A|-55------22------|-55------22------|-55------22------|---------2-2-----|
E|-----------------|-----------------|----5-------3----|-------------3-3-|
   1 + 2 + 3 + 4     1 + 2 + 3 + 4     1 + 2 + 3 + 4     1 + 2 + 3 + 4 


[Chorus]

G|-----------------|-----------------|-----------------|-----------------|
D|-----------------|-----------------|-----------------|-----------------|
A|-55------22------|-55------22------|-55------22------|-55------22------|
E|-----55------33--|-----55------3333|-----55------33--|-----55------3333|
   1 + 2 + 3 + 4     1 + 2 + 3 + 4     1 + 2 + 3 + 4     1 + 2 + 3 + 4 

G|-----------------|-----------------|-----------------|
D|-----------------|-----------------|-----------------|
A|---------22------|-55------22------|-----------------|
E|-----55------33--|-----55------3333|-----------------|
   1 + 2 + 3 + 4     1 + 2 + 3 + 4     1 + 2 + 3 + 4

[Verse2]

G|-----------------|-----------------|-----------------|-----------------|
D|-----------------|-----------------|-----------------|-----------------|
A|-5-------2-------|-5-------2-------|-55------2-------|-55------2-2-----|
E|----5-------3----|----5-------3----|----5-------3----|----5--------3-3-|
   1 + 2 + 3 + 4     1 + 2 + 3 + 4     1 + 2 + 3 + 4     1 + 2 + 3 + 4 


[Chorus]

G|-----------------|-----------------|-----------------|-----------------|
D|-----------------|-----------------|-----------------|-----------------|
A|-55------22------|-55------22------|-55------22------|-55------22------|
E|-----55------33--|-----55------3333|-----55------33--|-----55------3333|
   1 + 2 + 3 + 4     1 + 2 + 3 + 4     1 + 2 + 3 + 4     1 + 2 + 3 + 4 

G|-----------------|-----------------|
D|-----------------|-----------------|
A|---------22------|-55------22------|
E|-----55------33--|-----55------3333|
   1 + 2 + 3 + 4     1 + 2 + 3 + 4  

[Bridge]

G|-----------------|-----------------|-----------------|-----------------|
D|-----------------|-----------------|-----------------|-----------------|
A|-----------------|-----------------|-55------22------|-55------22------|
E|-----------------|-----------------|-----55----------|-----55----------|
   1 + 2 + 3 + 4     1 + 2 + 3 + 4     1 + 2 + 3 + 4     1 + 2 + 3 + 4 


[Chorus]

G|-----------------|-----------------|-----------------|-----------------|
D|-----------------|-----------------|-----------------|-----------------|
A|-55------22------|-55------22------|-55------22------|-55------22------|
E|-----55------33--|-----55------3333|-----55------33--|-----55------3333|
   1 + 2 + 3 + 4     1 + 2 + 3 + 4     1 + 2 + 3 + 4     1 + 2 + 3 + 4 

G|-----------------|-----------------|-----------------|-----------------|
D|-----------------|-----------------|-----------------|-----------------|
A|---------22------|-55------22------|-55------22------|-55------22------|
E|-----55------33--|-----55------3333|-----55------33--|-----55------3333|
   1 + 2 + 3 + 4     1 + 2 + 3 + 4     1 + 2 + 3 + 4     1 + 2 + 3 + 4 

************************************
Suggest correction
Creating personal tab
Creating personal tab
You can edit any tab online and save it as your Personal.

You can edit, replace or remove any tab part or add personal notes – all changes will be seen only by you.

Personal tabs can be accessed anytime from any device, even offline.
Learn more »
Give kudos to tab author, rate the tab!
1 2 3 4 5
comments
print report bad tab
guest
You may want to rate the tab now too:
select rating
Wanna post a correction for this tab? Suggest correction