Oops, an error
Loading. Please wait.

Guys My Age bass

196 views 15 this week
no commentswrite comment
1 2 3 4 5
3 more votes to show rating
add to favorites
×
Save as Personal and add changes to this tab that will be seen only by you. Learn more ›
×
You can save this tab as Personal to edit and correct it or add notes. All changes will be seen only by you. Learn more »
launch autoscroll
font size
0
reset
guitar tuner
edit
Autoscroll
slow
fast
+/-
esc
set tempo
stop
About this tab version
This bass tab, relatively, follows the bass on the keys that the bassist plays, and the capo on the forth fret keeps the bass in tune with the rest of the instruments, but can be lowered or raised. Was this info helpful? Yes No
I don't play this song using a plecturm, but you can, if you want to.
I used the 'Guys My Age' offical video on YouTube for the timing.
https://www.youtube.com/watch?v=3LzWUAkpNrQ

[Verse]

0:19

G|---------------------------------------------------------------|
D|---------------------------------------------------------------|
A|-7---7~--------------------------3---3~------------------------|
E|-----------------3---3~--------------------------5---5~--------|
   1 + 2 + 3 + 4 + 1 + 2 + 3 + 4 + 1 + 2 + 3 + 4 + 1 + 2 + 3 + 4

[Chorus]

0:35

G|---------------------------------------------------------------|
D|---------------------------------------------------------------|
A|-7~----7-7~----------------------3~----3-3~--------------------|
E|-----------------3~----3-3~----------------------5~----5-5~----|
   1 + 2 + 3 + 4 + 1 + 2 + 3 + 4 + 1 + 2 + 3 + 4 + 1 + 2 + 3 + 4

G|-----------------------------------------------------------------|
D|-----------------------------------------------------------------|
A|-7-7-7-7-7-7-7-7-----------------3-3-3-3-3-3-3-3-----------------|
E|-----------------3-3-3-3-3-3-3-3-----------------5-5-5-5-5-5-5-5-|
   1 + 2 + 3 + 4 + 1 + 2 + 3 + 4 + 1 + 2 + 3 + 4 + 1 + 2 + 3 + 4 +

[Verse]

1:06

G|---------------------------------------------------------------|
D|---------------------------------------------------------------|
A|-7~------------------------------3~----------------------------|
E|-----------------3~------------------------------5~------------|
   1 + 2 + 3 + 4 + 1 + 2 + 3 + 4 + 1 + 2 + 3 + 4 + 1 + 2 + 3 + 4

G|---------------------------------------------------------------|
D|---------------------------------------------------------------|
A|-7---7~--------------------------3---3~------------------------|
E|-----------------3---3~--------------------------5~------------|
   1 + 2 + 3 + 4 + 1 + 2 + 3 + 4 + 1 + 2 + 3 + 4 + 1 + 2 + 3 + 4

[Chorus]

1:38

G|---------------------------------------------------------------|
D|---------------------------------------------------------------|
A|-7~----7-7~----------------------3~----3-3~--------------------|
E|-----------------3~----3-3~----------------------5~----5-5~----|
   1 + 2 + 3 + 4 + 1 + 2 + 3 + 4 + 1 + 2 + 3 + 4 + 1 + 2 + 3 + 4

G|-----------------------------------------------------------------|
D|-----------------------------------------------------------------|
A|-7-7-7-7-7-7-7-7-----------------3-3-3-3-3-3-3-3-----------------|
E|-----------------3-3-3-3-3-3-3-3-----------------5-5-5-5-5-5-5-5-|
   1 + 2 + 3 + 4 + 1 + 2 + 3 + 4 + 1 + 2 + 3 + 4 + 1 + 2 + 3 + 4 +

[Post-chorus]

2:09

G|---------------------------------------------------------------|
D|---------------------------------------------------------------|
A|-7~------------------------------3~----------------------------|
E|-----------------3~------------------------------5~------------|
   1 + 2 + 3 + 4 + 1 + 2 + 3 + 4 + 1 + 2 + 3 + 4 + 1 + 2 + 3 + 4

[Chorus]

2:25

Rest for first half

2:41

G|-----------------------------------------------------------------|
D|-----------------------------------------------------------------|
A|-7-7-7-7-7-7-7-7-----------------3-3-3-3-3-3-3-3-----------------|
E|-----------------3-3-3-3-3-3-3-3-----------------5-5-5-5-5-5-5-5-|
   1 + 2 + 3 + 4 + 1 + 2 + 3 + 4 + 1 + 2 + 3 + 4 + 1 + 2 + 3 + 4 +

[Post-chorus]

2:09

G|-----------------------------------------------------------------|
D|-----------------------------------------------------------------|
A|-7-7-7-7-7-7-7-7-----------------3-3-3-3-3-3-3-3-----------------|
E|-----------------3-3-3-3-3-3-3-3-----------------5-5-5-5-5-5-5-5-|
   1 + 2 + 3 + 4 + 1 + 2 + 3 + 4 + 1 + 2 + 3 + 4 + 1 + 2 + 3 + 4 +

[Outro]

3:12

G|---------------------------------------------------------------|
D|---------------------------------------------------------------|
A|-7-----7-7-------7-7-7-7-7-------------------------------------|
E|---------------------------------3-----3-3-------3-3-3-3-3-----|
   1 + 2 + 3 + 4 + 1 + 2 + 3 + 4 + 1 + 2 + 3 + 4 + 1 + 2 + 3 + 4

G|-----------------------------------------------|
D|-----------------------------------------------|
A|-3-----3-3-------3-3-3-3-3---------------------|
E|---------------------------------5-------------|
   1 + 2 + 3 + 4 + 1 + 2 + 3 + 4 + 1 + 2 + 3 + 4


**************************************************

~ = Vibrato

            
            
Suggest correction
Creating personal tab
Creating personal tab
You can edit any tab online and save it as your Personal.

You can edit, replace or remove any tab part or add personal notes – all changes will be seen only by you.

Personal tabs can be accessed anytime from any device, even offline.
Learn more »
Give kudos to tab author, rate the tab!
1 2 3 4 5
comments
print report bad tab
guest
You may want to rate the tab now too:
select rating
Wanna post a correction for this tab? Suggest correction