Oops, an error
Loading. Please wait.

Hoodie bass

163 views 36 this week
no commentswrite comment
1 2 3 4 5
2 more votes to show rating
add to favorites
×
Save as Personal and add changes to this tab that will be seen only by you. Learn more ›
×
You can save this tab as Personal to edit and correct it or add notes. All changes will be seen only by you. Learn more »
launch autoscroll
font size
0
reset
guitar tuner
edit
Autoscroll
slow
fast
+/-
esc
set tempo
stop
About this tab version
The capo is on the forth fret because it works with the album track and chords more so than it would on any other fret. Was this info helpful? Yes No
I don't use a plectrum to play this because it takes away from the sound of the synth, which is the bass.
If you wanted a fuller bass sound, you could play the root notes of the gutiar chords, 
following what the guitar plays.
I used the offical 'Hoodie' lyric video for the timing.
https://www.youtube.com/watch?v=hLZ9f05dnEw

[Intro]

0:00

G|---------------------|
D|---------------------|
A|-3---7--5---3---7--5-|
E|---------------------|

[Verse]

0:11

G|-------------------------------------------|
D|-------------------------------------------|
A|-3---7--5---3---7--5---3---7--5---3---7--5-|
E|-------------------------------------------|

[Pre-chorus]

0:31

G|---------------------|
D|---------------------|
A|-3---7--5---3---7--5-|
E|---------------------|

[Chorus]

0:41

G|-------------------------------------------------------------------------------|
D|-------------------------------------------------------------------------------|
A|-3--3--3--7--7--7-5--3--3--3--7--7--7-5-3--3--3--7--7--7-5--3--3--3--7--7--7-5-|
E|-------------------------------------------------------------------------------|

[Verse]

1:01

G|-------------------------------------------|
D|-------------------------------------------|
A|-3---7--5---3---7--5---3---7--5---3---7--5-|
E|-------------------------------------------|

[Pre-chorus]

1:21

G|---------------------|
D|---------------------|
A|-3---7--5---3---7--5-|
E|---------------------|

[Chorus]

1:31

G|-------------------------------------------------------------------------------|
D|-------------------------------------------------------------------------------|
A|-3--3--3--7--7--7-5--3--3--3--7--7--7-5-3--3--3--7--7--7-5--3--3--3--7--7--7-5-|
E|-------------------------------------------------------------------------------|

G|-------------------------------------------------------------------------------|
D|-------------------------------------------------------------------------------|
A|-3--3--3--7--7--7-5--3--3--3--7--7--7-5-3--3--3--7--7--7-5--3--3--3--7--7--7-5-|
E|-------------------------------------------------------------------------------|

[Bridge]

2:12

G|---------------------------------------------------|
D|---------------------------------------------------|
A|-3~---7--5~---3~---7--5~---3~---7--5~---3~---7--5~-|
E|---------------------------------------------------|

[Chorus]

2:32

G|--------------------------------------------------|
D|--------------------------------------------------|
A|-3~---7--5~---3~---7--5~---3--3--3--7--7--7-5--3~-|
E|--------------------------------------------------|

2:47

Rest

2:52

G|-------------------------------------------------------------------------------|
D|-------------------------------------------------------------------------------|
A|-3--3--3--7--7--7-5--3--3--3--7--7--7-5-3--3--3--7--7--7-5--3--3--3--7--7--7-5-|
E|-------------------------------------------------------------------------------|

G|-------------------------------------------------------------------------------|
D|-------------------------------------------------------------------------------|
A|-3--3--3--7--7--7-5--3--3--3--7--7--7-5-3--3--3--7--7--7-5--3--3--3--7--7--7-5-|
E|-------------------------------------------------------------------------------|

G|----|
D|----|
A|-3~-|
E|----|

**********************************************************************************

~ = Vibrato
Suggest correction
Creating personal tab
Creating personal tab
You can edit any tab online and save it as your Personal.

You can edit, replace or remove any tab part or add personal notes – all changes will be seen only by you.

Personal tabs can be accessed anytime from any device, even offline.
Learn more »
Give kudos to tab author, rate the tab!
1 2 3 4 5
comments
print report bad tab
guest
You may want to rate the tab now too:
select rating
Wanna post a correction for this tab? Suggest correction