Oops, an error
Loading. Please wait.

I Can Feel It tab

3,181 views 18 this week
no commentswrite comment
1 2 3 4 5
x 6
add to favorites
×
Save as Personal and add changes to this tab that will be seen only by you. Learn more ›
×
You can save this tab as Personal to edit and correct it or add notes. All changes will be seen only by you. Learn more »
launch autoscroll
font size
0
reset
how to read this tab
guitar tuner
edit
Autoscroll
slow
fast
+/-
esc
set tempo
stop
Author
Difficulty
-------------------------------------------------------------------------------
                           I CAN FEEL IT - Hey Violet
-------------------------------------------------------------------------------
Tabbed by: Angela141998
ig: rapturouslarry
Tumblr: www.rapturouslarry.tumblr.com

Tuning: EADGBe

Guitar 1: Casey Moreta (Lead) https://www.youtube.com/watch?v=OjB2OcSi8BE
Guitar 2: Miranda Miller (Rhythm) https://www.youtube.com/watch?v=VYpJnhXERBI

Metronome: 162 bpm

If you want to play it like Miranda does, the tuning is in Drop D (DADGBe) so all notes in 
Standard tuning on the sixth string will be two frets up in Drop D.


Verse 1:

Guitar 1:

e|---------------------------------------------------------------------------|
B|--x-x-x-x-x-x-x-x-x-x-x-x-x-x-x-x-x-x-x-x-x-x-x-x-x-x-x-x-x-x-x-x----------|
G|--7-7-7-7-7-7-7-7-7-7-7-7-7-7-7-7-7-7-7-7-7-7-7-7-7-7-7-7-7-7-7-7----------|
D|--5-5-5-5-5-5-5-5-5-5-5-5-5-5-5-5-5-5-5-5-5-5-5-5-5-5-5-5-4-4-4-4----------|
A|---------------------------------------------------------------------------|
E|---------------------------------------------------------------------------|
    1 + 2 + 3 + 4 + 1 + 2 + 3 + 4 + 1 + 2 + 3 + 4 + 1 + 2 + 3 + 4 +
                                                           ~I   can


e|---------------------------------------------------------------------------|
B|--x-x-x-x-x-x-x-x-x-x-x-x-x-x-x-x-x-x-x-x-x-x-x-x-x-x-x-x-x-x-x-x----------|
G|--4-4-4-4-4-4-4-4-4-4-4-4-4-4-4-4-4-4-4-4-4-4-4-4-4-4-4-4-7-7-7-7----------|
D|--2-2-2-2-2-2-2-2-2-2-2-2-2-2-2-2-2-2-2-2-2-2-2-2-2-2-2-2-4-4-4-4----------|
A|---------------------------------------------------------------------------|
E|---------------------------------------------------------------------------|
    1 + 2 + 3 + 4 + 1 + 2 + 3 + 4 + 1 + 2 + 3 + 4 + 1 + 2 + 3 + 4 +
    wait

e|---------------------------------------------------------------------------|
B|--x-x-x-x-x-x-x-x-x-x-x-x-x-x-x-x-x-x-x-x-x-x-x-x-x-x-x-x-x-x-x-x----------|
G|--7-7-7-7-7-7-7-7-7-7-7-7-7-7-7-7-7-7-7-7-7-7-7-7-7-7-7-7-7-7-7-7----------|
D|--5-5-5-5-5-5-5-5-5-5-5-5-5-5-5-5-5-5-5-5-5-5-5-5-5-5-5-5-4-4-4-4----------|
A|---------------------------------------------------------------------------|
E|---------------------------------------------------------------------------|
    1 + 2 + 3 + 4 + 1 + 2 + 3 + 4 + 1 + 2 + 3 + 4 + 1 + 2 + 3 + 4 +
       to call you over                           waste the night     

e|---------------------------------------------------------------------------|
B|--x-x-x-x-x-x-x-x-x-x-x-x-x-x-x-x-x-x-x-x-x-x-x-x-x-x-x-x-x-x-x-x----------|
G|--4-4-4-4-4-4-4-4-4-4-4-4-4-4-4-4-4-4-4-4-4-4-4-4-4-4-4-4-7-7-7-7----------|
D|--2-2-2-2-2-2-2-2-2-2-2-2-2-2-2-2-2-2-2-2-2-2-2-2-2-2-2-2-4-4-4-4----------|
A|---------------------------------------------------------------------------|
E|---------------------------------------------------------------------------|
    1 + 2 + 3 + 4 + 1 + 2 + 3 + 4 + 1 + 2 + 3 + 4 + 1 + 2 + 3 + 4 +
  away

e|---------------------------------------------------------------------------|
B|--x-x-x-x-x-x-x-x-x-x-x-x-x-x-x-x-x-x-x-x-x-x-x-x-x-x-x-x-x-x-x-x----------|
G|--7-7-7-7-7-7-7-7-7-7-7-7-7-7-7-7-7-7-7-7-7-7-7-7-7-7-7-7-7-7-7-7----------|
D|--5-5-5-5-5-5-5-5-5-5-5-5-5-5-5-5-5-5-5-5-5-5-5-5-5-5-5-5-4-4-4-4----------|
A|---------------------------------------------------------------------------|
E|---------------------------------------------------------------------------|
    1 + 2 + 3 + 4 + 1 + 2 + 3 + 4 + 1 + 2 + 3 + 4 + 1 + 2 + 3 + 4 +
        when the lights...                                 ~want (do what we want)

e|---------------------------------------------------------------------------|
B|--x-x-x-x-x-x-x-x-x-x-x-x-x-x-x-x-x-x-x-x-x-x-x-x-x-x-x-x-x-x-x-x----------|
G|--4-4-4-4-4-4-4-4-4-4-4-4-4-4-4-4-4-4-4-4-4-4-4-4-4-4-4-4-2-2-3-3----------|
D|--2-2-2-2-2-2-2-2-2-2-2-2-2-2-2-2-2-2-2-2-2-2-2-2-2-2-2-2-0-0-0-0----------|
A|---------------------------------------------------------------------------|
E|---------------------------------------------------------------------------|
    1 + 2 + 3 + 4 + 1 + 2 + 3 + 4 + 1 + 2 + 3 + 4 + 1 + 2 + 3 + 4 +


Guitar 2:

e|---------------------------------------------------------------------------|
B|---------------------------------------------------------------------------|
G|--12-12-12-12-12-12-12-12-12-12-12-12-12-12-12-12-12-12-12-12-12-12-12-----|
D|--12-12-12-12-12-12-12-12-12-12-12-12-12-12-12-12-12-12-12-12-12-12-12-----|
A|--10-10-10-10-10-10-10-10-10-10-10-10-10-10-10-10-10-10-10--9--9--9--9-----|
E|---------------------------------------------------------------------------|
     1 +  2 + 3 + 4 + 1 + 2 + 3 + 4 + 1 + 2 + 3 + 4 + 1 + 2 + 3  +  4  +
                                                             ~I    can  
           
e|---------------------------------------------------------------------------|
B|---------------------------------------------------------------------------|
G|--9-9-9-9-9-9-9-9-9-9-9-9-9-9-9-9-9-9-9-9-9-9-9-9-9-9-9-9-11-11-11-11------|
D|--9-9-9-9-9-9-9-9-9-9-9-9-9-9-9-9-9-9-9-9-9-9-9-9-9-9-9-9-11-11-11-11------|
A|--7-7-7-7-7-7-7-7-7-7-7-7-7-7-7-7-7-7-7-7-7-7-7-7-7-7-7-7--9--9--9--9------|
E|---------------------------------------------------------------------------|
    1 + 2 + 3 + 4 + 1 + 2 + 3 + 4 + 1 + 2 + 3 + 4 + 1 + 2 +  3  +  4  +
    wait

e|---------------------------------------------------------------------------|
B|---------------------------------------------------------------------------|
G|--12-12-12-12-12-12-12-12-12-12-12-12-12-12-12-12-12-12-12-12-12-12-12-----|
D|--12-12-12-12-12-12-12-12-12-12-12-12-12-12-12-12-12-12-12-12-12-12-12-----|
A|--10-10-10-10-10-10-10-10-10-10-10-10-10-10-10-10-10-10-10--9--9--9--9-----|
E|---------------------------------------------------------------------------|
     1 +  2 + 3 + 4 + 1 + 2 + 3 + 4 + 1 + 2 + 3 + 4 + 1 + 2 + 3  +  4  +
          to  call you...                           waste the night
      
e|---------------------------------------------------------------------------|
B|---------------------------------------------------------------------------|
G|--9-9-9-9-9-9-9-9-9-9-9-9-9-9-9-9-9-9-9-9-9-9-9-9-9-9-9-9-11-11-11-11------|
D|--9-9-9-9-9-9-9-9-9-9-9-9-9-9-9-9-9-9-9-9-9-9-9-9-9-9-9-9-11-11-11-11------|
A|--7-7-7-7-7-7-7-7-7-7-7-7-7-7-7-7-7-7-7-7-7-7-7-7-7-7-7-7--9--9--9--9------|
E|---------------------------------------------------------------------------|
    1 + 2 + 3 + 4 + 1 + 2 + 3 + 4 + 1 + 2 + 3 + 4 + 1 + 2 +  3  +  4  +
  away

e|---------------------------------------------------------------------------|
B|---------------------------------------------------------------------------|
G|--12-12-12-12-12-12-12-12-12-12-12-12-12-12-12-12-12-12-12-12-12-12-12-----|
D|--12-12-12-12-12-12-12-12-12-12-12-12-12-12-12-12-12-12-12-12-12-12-12-----|
A|--10-10-10-10-10-10-10-10-10-10-10-10-10-10-10-10-10-10-10--9--9--9--9-----|
E|---------------------------------------------------------------------------|
     1 +  2 + 3 + 4 + 1 + 2 + 3 + 4 + 1 + 2 + 3 + 4 + 1 + 2 + 3  +  4  +
          when the lights...                                  want (do what we want)

e|---------------------------------------------------------------------------|
B|---------------------------------------------------------------------------|
G|--9-9-9-9-9-9-9-9-9-9-9-9-9-9-9-9-9-9-9-9-9-9-9-9-9-9-9-9--7--7--7--7------|
D|--9-9-9-9-9-9-9-9-9-9-9-9-9-9-9-9-9-9-9-9-9-9-9-9-9-9-9-9--7--7--7--7------|
A|--7-7-7-7-7-7-7-7-7-7-7-7-7-7-7-7-7-7-7-7-7-7-7-7-7-7-7-7--5--5--5--5------|
E|---------------------------------------------------------------------------|
    1 + 2 + 3 + 4 + 1 + 2 + 3 + 4 + 1 + 2 + 3 + 4 + 1 + 2 +  3  +  4  +




Pre-chorus:

Guitar 1:
    C                           C     D
e|---------------------------------------------------------------------------|
B|---------------------------------------------------------------------------|
G|--5---------------------------5-----7--------------------------------------|
D|--5---------------------------5-----7--------------------------------------|
A|--3---------------------------3-----5--------------------------------------|
E|---------------------------------------------------------------------------|
    1 + 2 + 3 + 4 + 1 + 2 + 3 + 4 +   1 + 2 + 3 + 4 + 1 + 2 + 3 + 4 +
      we'll be..                      (since this is a D major, you can play it
                                        as the open chord x00232)

Guitar 2: (almost the same as Guitar 1)
e|---------------------------------------------------------------------------|
B|---------------------------------------------------------------------------|
G|--5---------------------------------7-7-7----------------------------------|
D|--5---------------------------------7-7-7----------------------------------|
A|--3---------------------------------5-5-5----------------------------------|
E|---------------------------------------------------------------------------|
    1 + 2 + 3 + 4 + 1 + 2 + 3 + 4 +   1 + 2 + 3 + 4 + 1 + 2 + 3 + 4 +
                                      D U D (strumming)



Chorus:

Guitar 1:
(the first half)
e|---------------------------------------------------------------------------|
B|------8--8--7--7-----------------------------------------------------------|
G|------------------9--9--7--7-----------------------------------------------|
D|------------------------------7--9--7--5---7--9--7--5----------------------|
A|---------------------------------------------------------------------------|
E|---------------------------------------------------------------------------|
Are you feeling...                                    don't

e|---------------------------------------------------------------------------|
B|---------------------------------------------------------------------------|
G|---------------------------------------------------------------------------|
D|------------------5-------------------------5------------------------------|
A|--7---7--7--5--7-----7--5----7--7--7--5--7-----7--5------------------------|
E|---------------------------------------------------------------------------|
   wake me if...                                 I can

e|---------------------------------------------------------------------------|
B|---------------------------------------------------------------------------|
G|---------4--4--------------------4--4--------------------------------------|
D|--7--7---------------------7--7--------------------------------------------|
A|---------------7--7--5--5--------------7--7--5--5--------------------------|
E|---------------------------------------------------------------------------|
  feel it  I can...                            I  can

e|---------------------------------------------------------------------------|
B|--------------------------------------------7------------------------------|
G|--------------------------------7-----9------------------------------------|
D|--5--5--5--4--5--5--5--7--7--9-----9-----9-----9---------------------------|
A|---------------------------------------------------------------------------|
E|---------------------------------------------------------------------------|
  feel it...

(the second half)

e|---------------------------------------------------------------------------|
B|------8--8--7--7-----------------------------------------------------------|
G|------------------9--9--7--7-----------------------------------------------|
D|------------------------------7--9--7--5---7--9--7--5----------------------|
A|---------------------------------------------------------------------------|
E|---------------------------------------------------------------------------|
Are you feeling...                                  kicking      
                       
e|---------------------------------------------------------------------------|
B|---------------------------------------------------------------------------|
G|---------------------------------------------------------------------------|
D|-----------------5-------------------------5-------------------------------|
A|--7--7--7--5--7-----7--5----7--7--7--5--7-----7--5-------------------------|
E|---------------------------------------------------------------------------|
  bottles...

e|---------------------------------------------------------------------------|
B|---------------------------------------------------------------------------|
G|---------4--4--------------------4--4--------------------------------------|
D|--7--7---------------------7--7--------------------------------------------|
A|---------------7--7--5--5--------------7--7--5--5--------------------------|
E|---------------------------------------------------------------------------|
  feel it  I can...                            I  can

e|---------------------------------------------------------------------------|
B|--------------------------------------------7-----8------------------------|
G|--------------------------------7-----9------------------------------------|
D|--5--5--5--4--5--5--5--7--7--9-----9-----9-----9---------------------------|
A|---------------------------------------------------------------------------|
E|---------------------------------------------------------------------------|
  feel it...


Guitar 2:


e|---------------------------------------------------------------------------|
B|---------------------------------------------------------------------------|
G|------------------------------------5-5-5-5-5-5-5-5-5-5-5-5-5-5-5-5--------|
D|--5-5-5-5-5-5-5-5-5-5-5-5-5-5-5-5---5-5-5-5-5-5-5-5-5-5-5-5-5-5-5-5--------|
A|--5-5-5-5-5-5-5-5-5-5-5-5-5-5-5-5---3-3-3-3-3-3-3-3-3-3-3-3-3-3-3-3--------|
E|--3-3-3-3-3-3-3-3-3-3-3-3-3-3-3-3------------------------------------------|
    1 + 2 + 3 + 4 + 1 + 2 + 3 + 4 +   1 + 2 + 3 + 4 + 1 + 2 + 3 + 4 +
   ~feeling what...            don't wake me..                     I can
                              ~kicking bottles...                  I can

e|------------------------------------------------------------------------------|
B|------------------------------------------------------------------------------|
G|--7-7-7-7-7-7-7-7-7-7-7-7-7-7-7-7---5-5-5-5-5-5-5-5---9-9-9-9-----7-7-7-7-----|
D|--7-7-7-7-7-7-7-7-7-7-7-7-7-7-7-7---5-5-5-5-5-5-5-5---9-9-9-9-----7-7-7-7-----|
A|--5-5-5-5-5-5-5-5-5-5-5-5-5-5-5-5---3-3-3-3-3-3-3-3---7-7-7-7-----5-5-5-5-----|
E|------------------------------------------------------------------------------|
    1 + 2 + 3 + 4 + 1 + 2 + 3 + 4 +   1 + 2 + 3 + 4 +   1 + 2 +     3 + 4 +
feel it..                      I can feel it..      I'm looking at you

      Repeat for the second half



Pre-verse:

Guitar 1:
e|---------------------------------------------------------------------------|
B|--x-x-x-x-x-x-x-x-x-x-x-x-x-x-x-x-x-x-x-x-x-x-x-x-x-x-x-x-x-x-x-x-x-x------|
G|--7-7-7-7-7-7-7-7-7-7-7-7-7-7-7-7-7-7-7-7-7-7-7-7-7-7-7-7-7-7-7-7-7-7------|
D|--5-5-5-5-5-5-5-5-5-5-5-5-5-5-5-5-5-5-5-5-5-5-5-5-5-5-5-5-5-5-4-4-4-4------|
A|---------------------------------------------------------------------------|
E|---------------------------------------------------------------------------|
    1 + 2 + 3 + 4 + 1 + 2 + 3 + 4 + 1 + 2 + 3 + 4 + 1 + 2 + 3 +   4  +

Guitar 2:

e|---------------------------------------------------------------------------|
B|---------------------------------------------------------------------------|
G|---------------------------------------------------------------------------|
D|--5\--------------------------------5\-------------------------------------|
A|--5\--------------------------------5\------------------------5-5-5-5------|
E|--3\--------------------------------3\------------------------2-2-2-3------|
    1 + 2 + 3 + 4 + 1 + 2 + 3 + 4 +   1 + 2 + 3 + 4 + 1 + 2 + 3 +  4  +
                                      Hey!


Verse 2: 
Same as Verse 1


Repeat Pre-chorus and Chorus


Solo:

(Casey didn't include this in his tutorial, and I can't figure it out because 
I don't have an electric guitar either. Anyone's welcome to help me with this part.)


Guitar 2:
e|---------------------------------------------------------------------------|
B|---------------------------------------------------------------------------|
G|---------------------------------------------------------------------------|
D|--7---------------------------7---2---------------------------2------------|
A|--7---------------------------7---2---------------------------2------------|
E|--5---------------------------5---0---------------------------0------------|
    1 + 2 + 3 + 4 + 1 + 2 + 3 + 4 + 1 + 2 + 3 + 4 + 1 + 2 + 3 + 4 +


e|---------------------------------------------------------------------------|
B|---------------------------------------------------------------------------|
G|---------------------------------------------------------------------------|
D|--7---------------------------7--------------------------------------------|
A|--7---------------------------7--------------------------------------------|
E|--5---------------------------5--------------------------------------------|
    1 + 2 + 3 + 4 + 1 + 2 + 3 + 4 +

(Palm mute this part)
(Building up)
e|---------------------------------------------------------------------------|
B|---------------------------------------------------------------------------|
G|------------------------------------5-5-5-5-5-5-5-5-5-5-5-5-5-5-5-5--------|
D|--5-5-5-5-5-5-5-5-5-5-5-5-5-5-5-5---5-5-5-5-5-5-5-5-5-5-5-5-5-5-5-5--------|
A|--5-5-5-5-5-5-5-5-5-5-5-5-5-5-5-5---3-3-3-3-3-3-3-3-3-3-3-3-3-3-3-3--------|
E|--3-3-3-3-3-3-3-3-3-3-3-3-3-3-3-3------------------------------------------|
    1 + 2 + 3 + 4 + 1 + 2 + 3 + 4 +   1 + 2 + 3 + 4 + 1 + 2 + 3 + 4 +



Bridge/Breakdown:
(Guitar 1 and Guitar 2 are almost the same so you can play it either way)

PALM MUTE this part

Guitar 1:
e|---------------------------------------------------------------------------|
B|--7-7-7-7-7-7-7-7-7-7-7-7-7-7-7-7------------------------------------------|
G|--7-7-7-7-7-7-7-7-7-7-7-7-7-7-7-7---5-5-5-5-5-5-5-5-5-5-5-5-5-5-5-5--------|
D|--5-5-5-5-5-5-5-5-5-5-5-5-5-5-5-5---5-5-5-5-5-5-5-5-5-5-5-5-5-5-5-5--------|
A|------------------------------------3-3-3-3-3-3-3-3-3-3-3-3-3-3-3-3--------|
E|---------------------------------------------------------------------------|
    1 + 2 + 3 + 4 + 1 + 2 + 3 + 4 +   1 + 2 + 3 + 4 + 1 + 2 + 3 + 4 +
  


e|---------------------------------------------------------------------------|
B|---------------------------------------------------------------------------|
G|--7-7-7-7-7-7-7-7-7-7-7-7-7-7-7-7---5-5-5-5-5-5-5-5--4-4-4-4---------------|
D|--7-7-7-7-7-7-7-7-7-7-7-7-7-7-7-7---5-5-5-5-5-5-5-5--2-2-2-2---------------|
A|--5-5-5-5-5-5-5-5-5-5-5-5-5-5-5-5---3-3-3-3-3-3-3-3----------5-5-5-5-------|
E|-------------------------------------------------------------2-2-3-3-------|
    1 + 2 + 3 + 4 + 1 + 2 + 3 + 4 +   1 + 2 + 3 + 4 +  1 + 2 + 3 + 4 +
                                                               can you..
                
e|---------------------------------------------------------------------------|
B|---------------------------------------------------------------------------|
G|------------------------------------5-5-5-5-5-5-5-5-5-5-5-5-5-5-5-5--------|
D|--5-5-5-5-5-5-5-5-5-5-5-5-5-5-5-5---5-5-5-5-5-5-5-5-5-5-5-5-5-5-5-5--------|
A|--5-5-5-5-5-5-5-5-5-5-5-5-5-5-5-5---3-3-3-3-3-3-3-3-3-3-3-3-3-3-3-3--------|
E|--3-3-3-3-3-3-3-3-3-3-3-3-3-3-3-3------------------------------------------|
    1 + 2 + 3 + 4 + 1 + 2 + 3 + 4 +   1 + 2 + 3 + 4 + 1 + 2 + 3 + 4 +
                                      can you..                 can you

e|---------------------------------------------------------------------------|
B|---------------------------------------------------------------------------|
G|--7-7-7-7-7-7-7-7-7-7-7-7-7-7-7-7---5-5-5-5-5-5-5---12/--------------------|
D|--7-7-7-7-7-7-7-7-7-7-7-7-7-7-7-7---5-5-5-5-5-5-5---12/--------------------|
A|--5-5-5-5-5-5-5-5-5-5-5-5-5-5-5-5---3-3-3-3-3-3-3---9/---------------------|
E|---------------------------------------------------------------------------|
    1 + 2 + 3 + 4 + 1 + 2 + 3 + 4 +   1 + 2 + 3 + 4 + 1 + 2 +  
   feel..                                            |remove palm mute at this part
                                                oh-oh-oh


Guitar 2:
e|---------------------------------------------------------------------------|
B|---------------------------------------------------------------------------|
G|------------------------------------5-5-5-5-5-5-5-5-5-5-5-5-5-5-5-5--------|
D|--5-5-5-5-5-5-5-5-5-5-5-5-5-5-5-5---5-5-5-5-5-5-5-5-5-5-5-5-5-5-5-5--------|
A|--5-5-5-5-5-5-5-5-5-5-5-5-5-5-5-5---3-3-3-3-3-3-3-3-3-3-3-3-3-3-3-3--------|
E|--3-3-3-3-3-3-3-3-3-3-3-3-3-3-3-3------------------------------------------|
    1 + 2 + 3 + 4 + 1 + 2 + 3 + 4 +   1 + 2 + 3 + 4 + 1 + 2 + 3 + 4 +



e|---------------------------------------------------------------------------|
B|---------------------------------------------------------------------------|
G|--7-7-7-7-7-7-7-7-7-7-7-7-7-7-7-7---5-5-5-5-5-5-5-5---9-9-9-9--7-7-7-7-----|
D|--7-7-7-7-7-7-7-7-7-7-7-7-7-7-7-7---5-5-5-5-5-5-5-5---9-9-9-9--7-7-7-7-----|
A|--5-5-5-5-5-5-5-5-5-5-5-5-5-5-5-5---3-3-3-3-3-3-3-3---7-7-7-7--5-5-5-5-----|
E|---------------------------------------------------------------------------|
    1 + 2 + 3 + 4 + 1 + 2 + 3 + 4 +   1 + 2 + 3 + 4 +   1 + 2 +  3 + 4 +
                                                                     can you.. 
                
e|---------------------------------------------------------------------------|
B|---------------------------------------------------------------------------|
G|------------------------------------5-5-5-5-5-5-5-5-5-5-5-5-5-5-5-5--------|
D|--5-5-5-5-5-5-5-5-5-5-5-5-5-5-5-5---5-5-5-5-5-5-5-5-5-5-5-5-5-5-5-5--------|
A|--5-5-5-5-5-5-5-5-5-5-5-5-5-5-5-5---3-3-3-3-3-3-3-3-3-3-3-3-3-3-3-3--------|
E|--3-3-3-3-3-3-3-3-3-3-3-3-3-3-3-3------------------------------------------|
    1 + 2 + 3 + 4 + 1 + 2 + 3 + 4 +   1 + 2 + 3 + 4 + 1 + 2 + 3 + 4 +
                                      can you..                  can you

e|---------------------------------------------------------------------------|
B|---------------------------------------------------------------------------|
G|--7-7-7-7-7-7-7-7-7-7-7-7-7-7-7-7---5-5-5-5-5-5-5-5---7\-------------------|
D|--7-7-7-7-7-7-7-7-7-7-7-7-7-7-7-7---5-5-5-5-5-5-5-5---7\-------------------|
A|--5-5-5-5-5-5-5-5-5-5-5-5-5-5-5-5---3-3-3-3-3-3-3-3---5\-------------------|
E|---------------------------------------------------------------------------|
    1 + 2 + 3 + 4 + 1 + 2 + 3 + 4 +   1 + 2 + 3 + 4 +   1 + 2 +  
   feel..                                              |remove palm mute at this part
                                                  oh-oh-oh


Last Chorus: 

Guitar 1: (same as Chorus)
Guitar 2: (almost the same as Chorus except for the last part)

e|---------------------------------------------------------------------------|
B|---------------------------------------------------------------------------|
G|------------------------------------5-5-5-5-5-5-5-5-5-5-5-5-5-5-5-5--------|
D|--5-5-5-5-5-5-5-5-5-5-5-5-5-5-5-5---5-5-5-5-5-5-5-5-5-5-5-5-5-5-5-5--------|
A|--5-5-5-5-5-5-5-5-5-5-5-5-5-5-5-5---3-3-3-3-3-3-3-3-3-3-3-3-3-3-3-3--------|
E|--3-3-3-3-3-3-3-3-3-3-3-3-3-3-3-3------------------------------------------|
    1 + 2 + 3 + 4 + 1 + 2 + 3 + 4 +   1 + 2 + 3 + 4 + 1 + 2 + 3 + 4 +


e|---------------------------------------------------------------------------|
B|---------------------------------------------------------------------------|
G|--7-7-7-7-7-7-7-7-7-7-7-7-7-7-7-7---5-5-5-5-5-5-5-5---9-9-9-9--7-7-7-7-----|
D|--7-7-7-7-7-7-7-7-7-7-7-7-7-7-7-7---5-5-5-5-5-5-5-5---9-9-9-9--7-7-7-7-----|
A|--5-5-5-5-5-5-5-5-5-5-5-5-5-5-5-5---3-3-3-3-3-3-3-3---7-7-7-7--5-5-5-5-----|
E|---------------------------------------------------------------------------|
    1 + 2 + 3 + 4 + 1 + 2 + 3 + 4 +   1 + 2 + 3 + 4 +   1 + 2 +  3 + 4 +
 

                
e|---------------------------------------------------------------------------|
B|---------------------------------------------------------------------------|
G|------------------------------------5-5-5-5-5-5-5-5-5-5-5-5-5-5-5-5--------|
D|--5-5-5-5-5-5-5-5-5-5-5-5-5-5-5-5---5-5-5-5-5-5-5-5-5-5-5-5-5-5-5-5--------|
A|--5-5-5-5-5-5-5-5-5-5-5-5-5-5-5-5---3-3-3-3-3-3-3-3-3-3-3-3-3-3-3-3--------|
E|--3-3-3-3-3-3-3-3-3-3-3-3-3-3-3-3------------------------------------------|
    1 + 2 + 3 + 4 + 1 + 2 + 3 + 4 +   1 + 2 + 3 + 4 + 1 + 2 + 3 + 4 +


e|---------------------------------------------------------------------------|
B|---------------------------------------------------------------------------|
G|--7-7-7-7-7-7-7-7-7-7-7-7-7-7-7-7---5-5-5-5-5-5-5-5---9-9-9-9--7-7-7-7-----|
D|--7-7-7-7-7-7-7-7-7-7-7-7-7-7-7-7---5-5-5-5-5-5-5-5---9-9-9-9--7-7-7-7--5\-|
A|--5-5-5-5-5-5-5-5-5-5-5-5-5-5-5-5---3-3-3-3-3-3-3-3---7-7-7-7--5-5-5-5--5\-|
E|------------------------------------------------------------------------3\-|
    1 + 2 + 3 + 4 + 1 + 2 + 3 + 4 +   1 + 2 + 3 + 4 +   1 + 2 +  3 + 4 +




************************************

| /   slide up
| \   slide down
| h   hammer-on
| p   pull-off
| ~   vibrato
| +   harmonic
| x   Mute note
| b   Bend
| pb  Pre-bend
| br  Bend release
| pbr Pre-bend release
| brb Bend release bend

************************************
Suggest correction
Creating personal tab
Creating personal tab
You can edit any tab online and save it as your Personal.

You can edit, replace or remove any tab part or add personal notes – all changes will be seen only by you.

Personal tabs can be accessed anytime from any device, even offline.
Learn more »
comments
print report bad tab
guest
You may want to rate the tab now too:
select rating
Wanna post a correction for this tab? Suggest correction