Oops, an error
Loading. Please wait.

Sparks Fly intro tab

version 1
version 1

Intro

2,723 views 1 this week
2 commentsread comments
1 2 3 4 5
x 8
add to favorites
×
Save as Personal and add changes to this tab that will be seen only by you. Learn more ›
×
You can save this tab as Personal to edit and correct it or add notes. All changes will be seen only by you. Learn more »
launch autoscroll
font size
0
reset
how to read this tab
guitar tuner
edit
Autoscroll
slow
fast
+/-
esc
set tempo
stop
Author
Difficulty
intermediate
SPARKS FLY - Hey Violet
Tabbed by: Angela141998

Tuning: EADGBe
e|---------------------------------------------------------------------------|
B|---------------------------------------------------------------------------|
G|---------------------------------------------------------------------------|
D|---------------0-------2--------3-------------2--------0-------------------|
A|-------0-------------------------------------------------------------------|
E|---1-------1-------1--------1-------1------1--------1----------------------|

e|---------------------------------------------------------------------------|
B|---------------------------------------------------------------------------|
G|---------------------------------------------------------------------------|
D|---------------0-------2--------3-------------2--------0-------------------|
A|-------1-------------------------------------------------------------------|
E|---3-------3-------3--------3-------3------3--------3----------------------|

e|---------------------------------------------------------------------------|
B|---------------------------------------------------------------------------|
G|---------------0-------2------2h3-------------2--------0-------------------|
D|-------0-------------------------------------------------------------------|
A|---1-------1-------1--------1-------1-----1--------1-----------------------|
E|---------------------------------------------------------------------------|

e|---------------------------------------------------------------------------|
B|---------------------------------------------------------------------------|
G|---------------------------------------------------------------------------|
D|-------3-------3-------3-------3-------3-----------------------------------|
A|---3-------3-------3-------3-------3-------3-------------------------------|
E|---------------------------------------------------------------------------|

e|---------------------------------------------------------------------------|
B|---------------------------------------------------------------------------|
G|----4-------2----0---------------------------------------------------------|
D|----------------------3----------------------------------------------------|
A|---------------------------------------------------------------------------|
E|---------------------------------------------------------------------------|

************************************

| h  Hammer-on

************************************

            
            
Suggest correction
Creating personal tab
Creating personal tab
You can edit any tab online and save it as your Personal.

You can edit, replace or remove any tab part or add personal notes – all changes will be seen only by you.

Personal tabs can be accessed anytime from any device, even offline.
Learn more »
comments
print report bad tab
2 comments total.
0 reply
mishybee 288 Oct 02, 2015 04:27 PM

Lack of accuracy. this tab is not correct, it sounds far from the original song and should be looked over in more detail

0 reply
maree2001 45 Dec 11, 2015 09:57 PM

e|---------------------------------------------------------------------------|
B|---------------------------------------------------------------------------|
G|----3-------2----0---------------------------------------------------------|
D|----------------------3----------------------------------------------------|
A|---------------------------------------------------------------------------|
E|---------------------------------------------------------------------------|
I think this is more accurate but otherwise this is great1! :)

guest
You may want to rate the tab now too:
select rating
Wanna post a correction for this tab? Suggest correction