Oops, an error
Loading. Please wait.

You Dont Love Me Like You Should bass

1,714 views 9 this week
4 commentsread comments
1 2 3 4 5
x 8
add to favorites
×
Save as Personal and add changes to this tab that will be seen only by you. Learn more ›
×
You can save this tab as Personal to edit and correct it or add notes. All changes will be seen only by you. Learn more »
launch autoscroll
font size
0
reset
guitar tuner
edit
Autoscroll
slow
fast
+/-
esc
set tempo
stop
Author
-------------------------------------------------------------------------------
                             YOU DON'T LOVE ME LIKE YOU SHOULD - Hey Violet
-------------------------------------------------------------------------------

Full creds to Rena for uploading the tutorial to this; i also noticed lots couldn't view the video, 
so if it still does not work, i hope this helps :) https://www.youtube.com/watch?v=M0Yr5XexUSM

Tabbed by: Stevie Poling
E-mail: stevie.poling@yahoo.com.au

Tuning: EADG 

Verse 1: (00:05) "we were wings..."
G|---------------------------------------------------------------------------------------|
D|---------------------------------------------------------------------------------------| x2
A|---------------------------------------------------------------------------------------|
E|-1-1--3-3-3-3-3-3-3-3-3-3-3-3-3-3-3-3-7-7-7-7-7-7-7-7-10-10-10-10-10-10-10-10----------| 

Pre-chorus: (00:25) "are we dead..."
G|------------------------------------|
D|------------------------------------|
A|------------------------------------| cont.
E|--8-8-8-8-8-8-8-8-8-8-8-8-8-8-8-8---|

G|---------------------------------------------------------------------------------------------------------|
D|---------------------------------------------------------------------------------------------------------| 
A|---------------------------------------------------------------------------------------------------------|
E|-10-10-10-10-10-10-10-10-10-10-10-10-10-10-10-10-10-10-10-10-10-10-10-10-10-10-10-10-10-10-10-10---------| 


Chorus: (00:33) "you'd better wake up..."
G|--------------------------------------------------------------------------------------|
D|--------------------------------------------------------------------------------------|
A|--------------------------------------------------------------------------------------|
E|--3-3-3-3-3-3-3-3-3-3-3-3-3-3-3-3-10-10-10-10-10-10-10-10-10-10-10-10-10-10-10-10-----|

G|---------------------------------------------------------------------------------------|
D|---------------------------------------------------------------------------------------| x2
A|---------------------------------------------------------------------------------------|
E|-12-12-12-12-12-12-12-12-12-12-12-12-12-12-12-12-8-8-8-8-8-8-8-8-8-8-8-8-8-8-8-8-------|

Post-chorus [same as chorus]: (woah-oh's)
G|--------------------------------------------------------------------------------------|
D|--------------------------------------------------------------------------------------|
A|--------------------------------------------------------------------------------------|
E|--3-3-3-3-3-3-3-3-3-3-3-3-3-3-3-3-10-10-10-10-10-10-10-10-10-10-10-10-10-10-10-10-----|

G|---------------------------------------------------------------------------------------|
D|---------------------------------------------------------------------------------------| 
A|---------------------------------------------------------------------------------------|
E|-12-12-12-12-12-12-12-12-12-12-12-12-12-12-12-12-8-8-8-8-8-8-8-8-8-8-8-8-8-8-8-8-------|

Verse 2: (01:05) "we had break..."
G|-----------------------------------------------------------------------------------|
D|-----------------------------------------------------------------------------------| x2
A|-----------------------------------------------------------------------------------|
E|--3-3-3-3-3-3-3-3-3-3-3-3-3-3-3-3-7-7-7-7-7-7-7-7-10-10-10-10-10-10-10-10----------| 

Pre-: (01:26) "i don't care..."
G|------------------------------------|
D|------------------------------------|
A|------------------------------------| cont.
E|--8-8-8-8-8-8-8-8-8-8-8-8-8-8-8-8---|

G|---------------------------------------------------------------------------------------------------------|
D|---------------------------------------------------------------------------------------------------------| 
A|---------------------------------------------------------------------------------------------------------|
E|-10-10-10-10-10-10-10-10-10-10-10-10-10-10-10-10-10-10-10-10-10-10-10-10-10-10-10-10-10-10-10-10---------| 

Chorus: (01:34) "you'd better wake up..."
G|--------------------------------------------------------------------------------------|
D|--------------------------------------------------------------------------------------|
A|--------------------------------------------------------------------------------------|
E|--3-3-3-3-3-3-3-3-3-3-3-3-3-3-3-3-10-10-10-10-10-10-10-10-10-10-10-10-10-10-10-10-----|

G|---------------------------------------------------------------------------------------|
D|---------------------------------------------------------------------------------------| x2
A|---------------------------------------------------------------------------------------|
E|-12-12-12-12-12-12-12-12-12-12-12-12-12-12-12-12-8-8-8-8-8-8-8-8-8-8-8-8-8-8-8-8-------|


Post-chorus [same as chorus]: (woah-oh's)
G|--------------------------------------------------------------------------------------|
D|--------------------------------------------------------------------------------------|
A|--------------------------------------------------------------------------------------|
E|--3-3-3-3-3-3-3-3-3-3-3-3-3-3-3-3-10-10-10-10-10-10-10-10-10-10-10-10-10-10-10-10-----|

G|---------------------------------------------------------------------------------------|
D|---------------------------------------------------------------------------------------| 
A|---------------------------------------------------------------------------------------|
E|-12-12-12-12-12-12-12-12-12-12-12-12-12-12-12-12-8-8-8-8-8-8-8-8-8-8-8-8-8-8-8-8-------|

Bridge: (2:05) guitar solo
G|---------------------------------------------------------------------------|
D|---------------------------------------------------------------------------| x4
A|---------------------------------------------------------------------------|
E|-3--1-1--3-3--1-1--3--1-1--3-3--6-8----------------------------------------|

Pre-chorus: (02:26) "i don't care..."
G|-------------------------------------------------------------------------------------|
D|-------------------------------------------------------------------------------------|
A|-------------------------------------------------------------------------------------|
E|--8----------------10-------8--8--8--8--8--8--8-8-8-8--------------------------------|

"wake up soon and..." No bass

2:42 "you dont love me..."
G|---------------------------------------------------------------------------------------|
D|---------------------------------------------------------------------------------------|
A|---------------------------------------------------------------------------------------|
E|-12-12-12-12-12-12-12-12-12-12-12-12-12-12-12-12-8-8-8-8-8-8-8-8-8-8-8-8-8-8-8-8-------|

Chorus: (02:47) "got a heart that..."
G|--------------------------------------------------------------------------------------|
D|--------------------------------------------------------------------------------------|
A|--------------------------------------------------------------------------------------|
E|--3-3-3-3-3-3-3-3-3-3-3-3-3-3-3-3-10-10-10-10-10-10-10-10-10-10-10-10-10-10-10-10-----|

G|---------------------------------------------------------------------------------------|
D|---------------------------------------------------------------------------------------| x3
A|---------------------------------------------------------------------------------------|
E|-12-12-12-12-12-12-12-12-12-12-12-12-12-12-12-12-8-8-8-8-8-8-8-8-8-8-8-8-8-8-8-8-------|


play a E|-3---| to end, and that's it!

************************************
so yes,a very simple and repetitive song, but one of my favorites :) please let me know if 
there is anything wrong with it, as this tab was rejected 2 times before :(
************************************
Suggest correction
Creating personal tab
Creating personal tab
You can edit any tab online and save it as your Personal.

You can edit, replace or remove any tab part or add personal notes – all changes will be seen only by you.

Personal tabs can be accessed anytime from any device, even offline.
Learn more »
comments
print report bad tab
4 comments total. Showing first comments.
0 reply
hipsterbabe201 10 Feb 23, 2016 03:44 PM

ummm this is wrong for some of it

guest
You may want to rate the tab now too:
select rating
Wanna post a correction for this tab? Suggest correction