Oops, an error
Loading. Please wait.

Ichirin No Hana Bleach Opening Song tab

version 1
version 1

Whole song

Interactive

30,149 views 12 this week
5 commentsread comments
1 2 3 4 5
x 4
add to favorites
×
Save as Personal and add changes to this tab that will be seen only by you. Learn more ›
×
You can save this tab as Personal to edit and correct it or add notes. All changes will be seen only by you. Learn more »
launch autoscroll
font size
0
reset
how to read this tab
guitar tuner
edit
Autoscroll
slow
fast
+/-
esc
set tempo
stop
Author
Difficulty
**********Song Title - Ichirin No Hana****************
**********Band/Artist- High and Mighty Color**********

Tab by K.O.H (http://www.macidol.com/jamroom/bands/4699)
This is it but sorry for not including solo.
Enjoy



E||--------------------------|--------------------------|
B||-----------5--------7-----|-----5--------8-----------|
G||--6-----------------------|--------------------------|
D||-----4--6-----4--6-----4--|--6-----4--6--------4--6--|
A||--------------------------|-----------------4--------|
E||--------------------------|--------------------------|


                                                      
--------------------------|--------------------------|
-----------5--------7-----|-----5--------8-----------|
--6-----------------------|--------------------------|
-----4--6-----4--6-----4--|--6-----4--6--------4--6--|
--------------------------|-----------------4--------|
--------------------------|--------------------------|


                                                      
--------------------------|--------------------------|
--------------------------|--------------------------|
--6--6--6--6--6--6--6--6--|--8--8--8--8--8--8--8--8--|
--6--6--6--6--6--6--6--6--|--8--8--8--8--8--8--8--8--|
--4--4--4--4--4--4--4--4--|--6--6--6--6--6--6--6--6--|
--------------------------|--------------------------|


                                                                               
--------------------------|------------------------|--------------------------|
--------------------------|------------------------|--------------------------|
--9--9--9--9--9--9--9--9--|--11------11------11----|--6--6--6--6--6--6--6--6--|
--9--9--9--9--9--9--9--9--|--11------11------11----|--6--6--6--6--6--6--6--6--|
--7--7--7--7--7--7--7--7--|--9-------9-------9-----|--4--4--4--4--4--4--4--4--|
--------------------------|------------------------|--------------------------|


                                                      
--------------------------|--------------------------|
--------------------------|--------------------------|
--8--8--8--8--8--8--8--8--|--9--9--9--9--9--9--9--9--|
--8--8--8--8--8--8--8--8--|--9--9--9--9--9--9--9--9--|
--6--6--6--6--6--6--6--6--|--7--7--7--7--7--7--7--7--|
--------------------------|--------------------------|


                                                                             
--------------------------|------------------------|------------------------|
--------------------------|------------------------|------------------------|
--9--9--9--9--9--9--9--9--|--6----6--6----6--6--6--|--8----8--8----8--8--8--|
--9--9--9--9--9--9--9--9--|--6----6--6----6--6--6--|--8----8--8----8--8--8--|
--7--7--7--7--7--7--7--7--|--4----4--4----4--4--4--|--6----6--6----6--6--6--|
--------------------------|------------------------|------------------------|


                                                                       
------------------------|--------------------||-----------------------|
------------------------|--------------------||-----------------------|
--9----9--9----9--9--9--|--11/---------------||*--6----6----6--6------|
--9----9--9----9--9--9--|--11/---------------||*--6----6----6--6------|
--7----7--7----7--7--7--|--9/----------------||---4----4----4--4------|
------------------------|--------------------||---4----4----4--4------|


                                                                       
----------------------|----------------------|-----------------------||
---------------5------|----------------------|---------------5-------||
--6----6----4--7------|--6----6----6--6------|--6----6----4--7------*||
--6----6----4--7------|--6----6----6--6------|--6----6----4--7------*||
--4----4----4--5------|--4----4----4--4------|--4----4----4--5-------||
--4----4----4--5------|--4----4----4--4------|--4----4----4--5-------||


Half Time Feel
                                                                     
-----------------------|--------------------|-----------------------|
-----------------------|--------------------|-----------------------|
-----------------------|-----------6--------|-----------------------|
--6--6----6--6--6------|-----------6--------|--6--6----6--6--6------|
--4--4----4--4--4------|-----------4--------|--4--4----4--4--4------|
--4--4----4--4--4------|--------4-----------|--4--4----4--4--4------|


                                                                  
--------------------|-----------------------|--------------------|
--------------------|-----------------------|--------------------|
-----------4--------|-----------------------|-----------6--------|
-----------4--------|--6--6----6--6--6------|-----------6--------|
-----------2--------|--4--4----4--4--4------|-----------4--------|
--------2-----------|--4--4----4--4--4------|--------4-----------|


                                                                     
-----------------------|--------------------|-----------------------|
-----------------------|--------------------|-----------------------|
-----------------------|-----------4--------|-----------------------|
--6--6----6--6--6------|-----------4--------|--6--6----6----6----6--|
--4--4----4--4--4------|-----------2--------|--4--4----4----4----4--|
--4--4----4--4--4------|--------2-----------|--4--4----4----4----4--|


                                                                    
---------------------|-----------------------|---------------------|
---------------------|-----------------------|---------------------|
------------6--------|-----------------------|------------4--------|
----6----6--6--------|--6--6----6----6----6--|----6----6--4--------|
----4----4--4--------|--4--4----4----4----4--|----4----4--2--------|
----4----4-----------|--4--4----4----4----4--|----4----4-----------|


                                                                      
-----------------------|---------------------|-----------------------|
-----------------------|---------------------|-----------------------|
-----------------------|------------6--------|-----------------------|
--6--6----6----6----6--|----6----6--6--------|--6--6----6----6----6--|
--4--4----4----4----4--|----4----4--4--------|--4--4----4----4----4--|
--4--4----4----4----4--|----4----4-----------|--4--4----4----4----4--|


                       (A tempo) 
                                                      
---------------------||---------------------------|--------------------------|
---------------------||---------------------------|--------------------------|
------------4--------||*--6--6--6--6--6--6--6--6--|--8--8--8--8--8--8--8--8--|
----6----6--4--------||*--6--6--6--6--6--6--6--6--|--8--8--8--8--8--8--8--8--|
----4----4--2--------||---4--4--4--4--4--4--4--4--|--6--6--6--6--6--6--6--6--|
----4----4-----------||---------------------------|--------------------------|


                                                                               
--------------------------|------------------------|--------------------------|
--------------------------|------------------------|--------------------------|
--9--9--9--9--9--9--9--9--|--11------11------11----|--6--6--6--6--6--6--6--6--|
--9--9--9--9--9--9--9--9--|--11------11------11----|--6--6--6--6--6--6--6--6--|
--7--7--7--7--7--7--7--7--|--9-------9-------9-----|--4--4--4--4--4--4--4--4--|
--------------------------|------------------------|--------------------------|


                                                      
--------------------------|--------------------------|
--------------------------|--------------------------|
--8--8--8--8--8--8--8--8--|--9--9--9--9--9--9--9--9--|
--8--8--8--8--8--8--8--8--|--9--9--9--9--9--9--9--9--|
--6--6--6--6--6--6--6--6--|--7--7--7--7--7--7--7--7--|
--------------------------|--------------------------|


                                                      
-------------------------||--------------------------|
-------------------------||--------------------------|
--11------11------11----*||--6--6--6--6--6--6--6--6--|
--11------11------11----*||--6--6--6--6--6--6--6--6--|
--9-------9-------9------||--4--4--4--4--4--4--4--4--|
-------------------------||--------------------------|


                                                      
--------------------------|--------------------------|
--------------------------|--------------------------|
--8--8--8--8--8--8--8--8--|--9--9--9--9--9--9--9--9--|
--8--8--8--8--8--8--8--8--|--9--9--9--9--9--9--9--9--|
--6--6--6--6--6--6--6--6--|--7--7--7--7--7--7--7--7--|
--------------------------|--------------------------|


                                                                               
--------------------------||-------------------------|------------------------|
--------------------------||-------------------------|------------------------|
--9--9--9--9--9--9--9--9--||*--6----6--6----6--6--6--|--8----8--8----8--8--8--|
--9--9--9--9--9--9--9--9--||*--6----6--6----6--6--6--|--8----8--8----8--8--8--|
--7--7--7--7--7--7--7--7--||---4----4--4----4--4--4--|--6----6--6----6--6--6--|
--------------------------||-------------------------|------------------------|


                                                        
------------------------|------------------------------|
------------------------|------------------------------|
--9----9--9----9--9--9--|--11----11--11----11--11--11--|
--9----9--9----9--9--9--|--11----11--11----11--11--11--|
--7----7--7----7--7--7--|--9-----9---9-----9---9---9---|
------------------------|------------------------------|


                                                                           
------------------------|------------------------|------------------------|
------------------------|------------------------|------------------------|
--6----6--6----6--6--6--|--8----8--8----8--8--8--|--9----9--9----9--9--9--|
--6----6--6----6--6--6--|--8----8--8----8--8--8--|--9----9--9----9--9--9--|
--4----4--4----4--4--4--|--6----6--6----6--6--6--|--7----7--7----7--7--7--|
------------------------|------------------------|------------------------|


                                                                     
--------------------||-----------------------|----------------------|
--------------------||-----------------------|---------------5------|
--11/---------------||*--6----6----6--6------|--6----6----4--7------|
--11/---------------||*--6----6----6--6------|--6----6----4--7------|
--9/----------------||---4----4----4--4------|--4----4----4--5------|
--------------------||---4----4----4--4------|--4----4----4--5------|


                                                                   
----------------------|-----------------------||------------------|
----------------------|---------------5-------||------------------|
--6----6----6--6------|--6----6----4--7------*||------------------|
--6----6----6--6------|--6----6----4--7------*||------------------|
--4----4----4--4------|--4----4----4--5-------||------------------|
--4----4----4--4------|--4----4----4--5-------||------------------|


                                                                                
--4------------4-4-4-4-|----------------------------------|-------------------||
--4------------4-4-4-4-|----------------------------------|-------------------||
--6------------6-6-6-6-|--6-6-6-6-6-6-6-6-------------4-5-|--6/---------------||
--6------------6-6-6-6-|--6-6-6-6-6-6-6-6-------4-6-7-----|--6/---------------||
--4------------4-4-4-4-|--4-4-4-4-4-4-4-4-4-6-7-----------|--4/---------------||
--4------------4-4-4-4-|--4-4-4-4-4-4-4-4-----------------|--4/---------------||

***********************************************************************************


                        

            
            
Suggest correction
Creating personal tab
Creating personal tab
You can edit any tab online and save it as your Personal.

You can edit, replace or remove any tab part or add personal notes – all changes will be seen only by you.

Personal tabs can be accessed anytime from any device, even offline.
Learn more »
comments
print report bad tab
5 comments total. Showing first comments.
+1 reply
royalewcheese35 16 Feb 14, 2007 01:46 PM

i tried playing your tab because i love the intro to this song. But since it was butchered, and I do play alot of metal, i decided to tab out the intro really quick, and maybe i'll do the rest later. it is played by sweep picking and i included the pick direction and fingering(although almost no tabs do this, i play piano and if it's good enough for piano it's good enough for guitar. d=down u=up)-100% right.

e--------------------------------------------------------------------
b-------5-----7----5-----8-----8---------5-----7-----5-----8-----5---
g-6---6-----6----6-----6-----7---6-----6-----6-----6-----6-----7---6-
d---4-----4----4-----4-----5-------4-------4-----4-----4-----5------4
a--------------------------------------------------------------------
e--------------------------------------------------------------------
u d d d d d dd d d d d d d d d u u d d d d d d d d d d d d d d uu
3 1 3 2 1 3 41 3 2 1 2 4 1 3 4 3 1 3 2 1 3 4 1 3 2 1 2 4 1 3 2 31
play that about than 2 times and end on the last "8 fret" played by sliding down.

+1 reply
finalheaven 31 Feb 14, 2007 10:20 PM

Rated it 5 stars for the comment above. Lol.

+1 reply
smudge666uk 10 Mar 28, 2008 09:38 AM

the intro's tapped o.O, youtube it live and you'll see one of the guitarists tapping the intro

guest
You may want to rate the tab now too:
select rating
Wanna post a correction for this tab? Suggest correction