Oops, an error
Loading. Please wait.

Ichirin No Hana tab

version 1
version 1

Whole song

Interactive

28,018 views 24 this week
1 commentread comment
1 2 3 4 5
x 4
add to favorites
×
Save as Personal and add changes to this tab that will be seen only by you. Learn more ›
×
You can save this tab as Personal to edit and correct it or add notes. All changes will be seen only by you. Learn more »
launch autoscroll
font size
0
reset
how to read this tab
guitar tuner
edit
Autoscroll
slow
fast
+/-
esc
set tempo
stop
Author
Difficulty
BLEACH »
             »Ichirin no Hana - A single flower
             »Ichirin no Hana
             »A single flower

Artist       »HIGH and MIGHTY COLOR
Description  »BLEACH 3rd opening song
Note         »this is an Update Tab
              many mistakes in the 1st tab 

Intro:

e|-------------------------------------------------------------|
B|-------------------------------------------------------------|
G|-----6h-t9--4h-6h-t11--4h-6h-t9--4h-6h-t12------7h---t12-p7--|
D|---4------------------------------------------5--------------|
A|-------------------------------------------------------------|
E|-------------------------------------------------------------|

e|-----------------------------------------------------------|
B|-----------------------------------------------------------|
G|---6h-t9--4h-6h-t11--4h-6h-t9--4h-6h-t9------7h---t9---p6--|
D|-4-----------------------------------------5---------------|
A|-----------------------------------------------------------|
E|-----------------------------------------------------------|

e|----------------------------------------------------------|
B|----------------------------------------------------------|
G|---6h-t9--4h-6h-t11--4h-6h-t9--4h-6h-t12-----7h---t12-p7--|
D|-4-----------------------------------------5--------------|
A|----------------------------------------------------------|
E|----------------------------------------------------------|


e|---------------------------------------------------|
B|---------------------------------------------------|
G|----6h-t9--4h-6h-t11--4h-6h-t9--4h-6h-t9-----------|
D|--4------------------------------------------------|
A|---------------------------------------------------|
E|---------------------------------------------------|
                                 guitar2: fast slide
E|--------------------------------------/-/12\-\---------|


Chorus:........(sorry, do your own strum.)

e|---------------------------------------------------|
B|---------------------------------------------------|
G|--6---------------8-------------9--------11--------|
D|--6---------------8-------------9--------11--------|
A|--4---------------6-------------7---------9--------|
E|---------------------------------------------------|
   Kimi     wa     kimi   dake shika       inai yo

e|---------------------------------------|
B|---------------------------------------|
G|--6---------------8------9-------------|
D|--6---------------8------9-------------|
A|--4---------------6------7-------------|
E|---------------------------------------|
   Kawari  nante    hoka   ni inainda

e|----------------------------------------------|
B|----------------------------------------------|
G|--6-------8------9---------------11-----------|
D|--6-------8------9---------------11-----------|
A|--4-------6------7----------------9-----------|
E|----------------------------------------------|
          Kare nai de               ichirin no hana


Riff:

e|-------------------------------------------5-------|
B|-----------------------3---------------------------|
G|----6p-4---6--6-----------6--6-------4h-6----------|
D|---------------------------------------------------|
A|---------------------------------------------------|\
E|---------------------------------------------------| \
                                                     repeat 2x
e|-------------------------------------------7-------|  /
B|-----------------------3---------------------------| /
G|----6p-4---6--6-----------6--6-------4h-6----------|/
D|---------------------------------------------------|
A|---------------------------------------------------|
E|---------------------------------------------------|

    upstroke downstroke strumming                             
e|-----4---------4---------4-------5--------|
B|-----4---------4---------4-------5--------|
G|-----6---------6---------6-------7--------|
D|-----6---------6---------6----x--7--------|
A|--x--4------x--4------x--4----x--5--------|\
E|--x--4------x--4------x--4----x--5--------| \
                                              /guitar2
e|-----4---------4---------4-------2--------|/   
B|-----4---------4---------4-------2--------|
G|-----6---------6---------6-------4--------|
D|-----6---------6---------6----x--4--------|
A|--x--4------x--4------x--4----x--2--------|
E|--x--4------x--4------x--4----x--2--------|

Verse:
      (Hard to figure out, the timing of the Lyrics. So.. do your own:-)

     ------PM------      PM      ------PM--------------------|     PM
e|-----------------------------------------------------------|
B|-----------------------------------------------------------|
G|--------------------------6---------------------------4----|
D|--------------------------6---------------------------4----|
A|---4--4---4--4--4-------4-4-----4--4---4--4--4------4-2----|
E|---4--4---4--4--4-------4-------4--4---4--4--4------4------|

      Hi   ka    ri ga matomo  ni sa   shi ko  ma     nai
     Kimi wa maru de hikage ni saita hana no you
     Nozonda hazu jyanakatta basho ni
     Ne wo harasete ugokezu ni irunda ne

  Then..

 | -----------PM------------      -----------PM-----------------|
e|--------------------------------------------------------------|
B|--------------------------------------------------------------|
G|---------------------------6------------------------------4---|
D|---------------------------6------------------------------4---|
A|-4--4---4--4--4---4--4---4-4----4--4---4--4--4---4--4---4-2---|
E|-4--4---4--4--4---4--4---4------4--4---4--4--4---4--4---4-----|
   To..........               ji... ka..................

 | -----------PM------------      -----------PM---------------------|
e|------------------------------------------------------------------|
B|------------------------------------------------------------------|
G|---------------------------6--------------------------------------|
D|---------------------------6--------------------------------------|
A|-4--4---4--4--4---4--4---4-4----4--4---4--4--4---4--4---4---------|
E|-4--4---4--4--4---4--4---4------4--4---4--4--4---4--4---4-7\\\----|
  ke...........       ta..... kimochi         haki     daseba

REPEAT:
       -- Chorus ---
       -- Riff   ---

       -- Verse :---
       --
       --Ima ni mo karete shimai sou na
       --Kimi no mujyaki na sugata ga mou ichido mitakute
       --
       --Kimi no chikara ni naritainda

Chorus........ (The same as the first Chorus)

Tatoe kimi igai no subete no hito wo
Teki ni mawasu toki ga kite mo
Kimi no koto mamori nuku kara

 Then..

e|-----------------------------------------------------|
B|-----------------------------------------------------|
G|-----------------------------------------------------| Repeat
D|----------------------4-----------------------9------|   4x
A|---4---/-5---\-4---\--2----4---/-5---\-4---/--7------| This is played
E|---4---/-5---\-4------2----4---/-5---\-4---/--7------| guitar2

e|---------------------------------------------------|
B|-----------3--3------------------------------------|
G|----6p-4---------------6-----6--6------4h-6--4-----|
D|---------------------------------------------------|
A|---------------------------------------------------|\
E|---------------------------------------------------| \
                                                     repeat 2x
e|---------------------------------------------7-----| /
B|-----------3--3------------------------------------|/
G|----6p-4---------------6-----6--6------4h-6--------|
D|---------------------------------------------------|
A|---------------------------------------------------|
E|---------------------------------------------------|


Solo:


    F#5  
             t                t                t                t
e|-----------------------------------------------------------------------|
B|----7h8h10-12p10p8---7h8h10-12p10p8---7h8h10-12p10p8---7h8h10-12p10p8--|
G|--9----------------9----------------9----------------9-----------------|
D|-----------------------------------------------------------------------|
A|-----------------------------------------------------------------------|
E|-----------------------------------------------------------------------|

   E5
e|-9h10p9-------------------------------------------|
B|-------12p10p8----8h10p8--------------------------|
G|--------------11p9------11p9p7----7h9p7-----------|
D|------------------------------11p9-----11p9p7-----|
A|---------------------------------------------10p9-|
E|--------------------------------------------------|

   G5
e|------------------------------------------9--7--10--9/==-17~---|
B|-----------------------------8--7--10--8-----------------------|
G|---------------7------9--7-------------------------------------|
D|----7-9----11-----11-------------------------------------------|
A|-10------------------------------------------------------------|
E|---------------------------------------------------------------|

        F#5                       F#5
e|--15--14--12\--7~------12--10--9~~~~~------------|
B|-------------------------------------------------|
G|-------------------------------------------------|
D|-------------------------------------------------|
A|-------------------------------------------------|
E|-------------------------------------------------|

   F#5
e|-12-9-------9-14-9--------9-12-9--------------------9--|
B|-----10---10-------10---10------10----------------10---|
G|--------9-------------9-----------9--------------9-----|
D|------------------------------------11---------11------|
A|---------------------------------------12--7-12--------|
E|-------------------------------------------------------|

   E5
e|-14-9-------9-14-9------9-14-9--------------------9--|
B|------12--12------12--12------12----------------12---|
G|--------11----------11----------11------------11-----|
D|----------------------------------12--------12-------|
A|------------------------------------14--9-14---------|
E|-----------------------------------------------------|


   G5                                          ==
e|-15-10------10-15-10------10-15-10------10-15-/~17~~-------|
B|------13--13--------13--13--------13--13-------------------|
G|--------12------------12------------12---------------------|
D|-----------------------------------------------------------|
A|-----------------------------------------------------------|
E|-----------------------------------------------------------|

    F#5
e|--17-------15--------17-------15-------12-------15--------|
B|-----15-12----12-15-----15-12----12-10----10-12----12-10--|
G|----------------------------------------------------------|
D|----------------------------------------------------------|
A|----------------------------------------------------------|
E|----------------------------------------------------------|

                                       G5
e|-12------10------12------10------10--7~~~~~~~~----------------|
B|----10-8----8-10----10-8----8-7-------------------------------|
G|--------------------------------------------------------------|
D|--------------------------------------------------------------|
A|--------------------------------------------------------------|
E|--------------------------------------------------------------|

   I don't have Trem Bar.. Just try it..
e|-------------------------------------------------|
B|-------Dive Bomb-----------------12b====---------|
G|-------Tremolo Bar---------------11b====11r~~~---|
D|-------------------------------------------------|
A|-------------------------------------------------|
E|-------------------------------------------------|


Chorus........(Play the same chords as the other Chorus Chords..)

Kimi wa kimi dake shika inai yo
Ima made mo kore kara saki ni mo
Tatoe kimi igai no subete no hito wo
Teki ni mawasu toki ga kite mo
Kimi no koto mamori nuku kara
Makenai de ichirin no hana
                           
    upstroke downstroke strumming                             
e|-----4---------4---------4-------5--------|
B|-----4---------4---------4-------5--------|
G|-----6---------6---------6-------7--------|
D|-----6---------6---------6----x--7--------|
A|--x--4------x--4------x--4----x--5--------|\
E|--x--4------x--4------x--4----x--5--------| \
                                              /guitar2
e|-----4---------4---------4-------2--------|/   
B|-----4---------4---------4-------2--------|
G|-----6---------6---------6-------4--------|
D|-----6---------6---------6----x--4--------|
A|--x--4------x--4------x--4----x--2--------|
E|--x--4------x--4------x--4----x--2--------|

Then:

e|-------------------------------------------5-------|
B|-----------------------3---------------------------|
G|----6p-4---6--6-----------6--6-------4h-6----------|
D|---------------------------------------------------|
A|---------------------------------------------------|\
E|---------------------------------------------------| \
                                                     repeat 2x
e|-------------------------------------------7-------|  /
B|-----------------------3---------------------------| /
G|----6p-4---6--6-----------6--6-------4h-6----------|/
D|---------------------------------------------------|
A|---------------------------------------------------|
E|---------------------------------------------------|


Tablature Legend:

  h      -- hammer on
  p      -- pull off
  b      -- bend
  r      -- bend release
  ===    -- bend hold or maintain
  ^      -- bend a little
  v      -- bend more, to previous bend
  /,\    -- slide(toward, forward)
  ~      -- let ring
  x      -- Muted String
  AH     -- Artificial Harmonic
  TP     -- Tap Harmonic
  PH     -- Pitch Harmonic
  NH     -- Natural Harmonic
  PM     -- Palm Muted
  T      -- Tap
  t      -- Use your picking hand to create pull-off's and hammer-on's
  Tr     -- Trill


----------------------------Lyrics--------------------------------|
------------------------------------------------------------------|
http://www.animelyrics.com


Kimi  wa kimi  dake shika  inai yo
Kawari  nante  hoka  ni inainda
Kare nai de  ichirin no hana

Hikari ga matomo ni sashikomanai
Kimi wa maru de hikage ni saita hana no you
Nozonda hazu jyanakatta basho ni
Ne wo harasete ugokezu ni irunda ne

Tojikaketa kimochi haki daseba

Itami mo kurushimi mo subete wo uketomeru yo
Dakara nakanai de
Waratte ite ichirin no hana

Ima ni mo karete shimai sou na
Kimi no mujyaki na sugata ga mou ichido mitakute

Kimi no chikara ni naritainda

Tatoe kimi igai no subete no hito wo
Teki ni mawasu toki ga kite mo
Kimi no koto mamori nuku kara


Kimi wa kimi dake shika inai yo
Ima made mo kore kara saki ni mo
Tatoe kimi igai no subete no hito wo
Teki ni mawasu toki ga kite mo
Kimi no koto mamori nuku kara
Makenai de ichirin no hana


--------------Romaji Lyrics English Translation-------------------|
------------------------------------------------------------------|

You are the only "you"
There is no such thing as your replacement
Don't wilt away, single flower

 You are like a flower
That bloomed in a dark shadow
Even though you're in a place you didn't wish to be,
You can't move because of your roots

Just spit out your closed-up feelings

 I'll accept all of your pain and suffering
So please don't cry
Please smile, single flower

 I wanted to see your innocent figure
That looked as if it were about to wilt, one more time
 I want to become your strength

 Even if there comes a time
When the whole world becomes our enemy
I'll protect you


 You are the only "you"
Till now and from now on
Even if there comes a time
When the whole world becomes our enemy
I'll protect you
So don't give up, single flower

------------------------------------------------------------------------|
------------------------------------------------------------------------|
  Tabbed by      : Nazo Dela Reka
      Email      : nazo_dela_reka@yahoo.com
                   Calinan Davao City, Phillipines...

                   This is for the ALL the Anime Fanatics Here In Davao..!!!

            
            
Suggest correction
Creating personal tab
Creating personal tab
You can edit any tab online and save it as your Personal.

You can edit, replace or remove any tab part or add personal notes – all changes will be seen only by you.

Personal tabs can be accessed anytime from any device, even offline.
Learn more »
comments
print report bad tab
1 comment total.
+1 reply
rynamo-dynamo 10 Oct 05, 2008 08:42 PM

great job dude!
very well done
almost flawless!
keep up the good tabbing!
solo is a bitch to learn though

guest
You may want to rate the tab now too:
select rating
Wanna post a correction for this tab? Suggest correction