Oops, an error
Loading. Please wait.

All My Real Friends Tab

303 views 1 this week
no commentswrite comment
1 2 3 4 5
x 3
add to favorites
launch autoscroll
font size
0
reset
how to read this tab
guitar tuner
Autoscroll
slow
fast
+/-
esc
set tempo
stop
Help us to improve Ultimate-Guitar.com Take our survey!
×
High Holy Days â€" All My Real Friends

Tuning: Drop D

This took me a while.. it sounds like theres about 3 different guitar tracks in this
song, but ive seen them play it live, so its possible. Hope you like this tab, its one
of their best songs:


Intro (Clean, Heavy Reverb)
e|------------------------|
B|---12---12-11-----------|
G|--------------11-13-----|
D|------------------------|
A|------------------------|
D|------------------------|
Intro Part 2 (Clean, Reverb)
e|----------------------------------------------------------|
B|---12-11---------11-12-11---------------------------------|
G|---------11-10-11---------11-10-11-13-15/13-13-13-13-13-13|
D|----------------------------------------------------------|
A|----------------------------------------------------------|
D|----------------------------------------------------------|

e|-----------------------------------------------------|
B|---12-11---------11-12-11-------------14-14-14-14-14-|
G|---------11-10-11---------11-10-11-13----------------|
D|-----------------------------------------------------|
A|-----------------------------------------------------|
D|-----------------------------------------------------|

Verse  (Clean with Reverb)
      'See,                     believe
e|-----------------------------------------------------|
B|---12-12-12-12-12-12-12p11-11-11-11-11-11-11-11p9----|
G|-----------------------------------------------------|
D|-----------------------------------------------------|
A|-----------------------------------------------------|
D|-----------------------------------------------------|
      forget me,         my...'
e|-----------------------------------------------------|
B|---9-9-9-9-9-9-9-9h12-9-9-9-9-9-9-9-9----------------|
G|-----------------------------------------------------|
D|-----------------------------------------------------|
A|-----------------------------------------------------|
D|-----------------------------------------------------|
      'Nights                  Concede to
e|-----------------------------------------------------|
B|---12-12-12-12-12-12-12h11-11-11-11-11-11-11-11h9----|
G|-----------------------------------------------------|
D|-----------------------------------------------------|
A|-----------------------------------------------------|
D|-----------------------------------------------------|
     Wreckless versions of myself
e|-----------------------------------------------------|
B|---14-14-14-14-14-14-14-14-14-14-14-14-14-14-14------|
G|-----------------------------------------------------|
D|-----------------------------------------------------|
A|-----------------------------------------------------|
D|-----------------------------------------------------|
          'All     my    real..'
e|-----------------------------------------------------|
B|---12-12-12-12-12-12-12p11-11-11-11-11-11-11-11p9----|
G|-----------------------------------------------------|
D|-----------------------------------------------------|
A|-----------------------------------------------------|
D|-----------------------------------------------------|
      'Wanting for a shield..'
e|-----------------------------------------------------|
B|---9-9-9-9-9-9-9-9h12-9-9-9-9-9-9-9-9----------------|
G|-----------------------------------------------------|
D|-----------------------------------------------------|
A|-----------------------------------------------------|
D|-----------------------------------------------------|

Pre-Chorus (Distorted, played backwards or with volume swell)
  'I cant..'
e|-----------------|
B|-----------------|
G|-------*x-x------|
D|-12----*x-x------|
A|-10----*x-x------|
D|--0----*x-x------|
          pm
Chorus (Distorted)
     'All I hate..'
e|---------------------------------------------------|
B|---------------------------------------------------|
G|---------------------------------------------------|
D|---8h9-9-9-8h9-9-9-8h9-9-8h9-9-9-8h9---------------|
A|---8h9-9-9-8h9-9-9-8h9-9-8h9-9-9-8h9-8--8-8h9-9\---|
D|---8h9-9-9-8h9-9-9-8h9-9-8h9-9-9-8h9-8--8-8h9-9\---|
 '..Feel it'
e|--7-6-4-4--7-6-4-4--7-6-4-4--7-6-4-4--7-6-4-4|
B|--0-0-0-0--0-0-0-0--0-0-0-0--0-0-0-0--0-0-0-0|
G|---------------------------------------------|
D|---------------------------------------------|
A|---------------------------------------------|
D|---------------------------------------------|
  'Night is gone and all we get..'
e|-----------------------------------------|
B|-----------------------------------------|
G|-----------------------------------------|
D|---8h9-9-98h9-9-98h9-0h2-22-0h2----------|
A|---8h9-9-98h9-9-98h9-0h2-22-0h2-2-0-22---|
D|---8h9-9-98h9-9-98h9-0h2-22-0h2-2-0-22---|                          .
 'Resentment..'
e|--7-6-4-4--7-6-4-4--7-6-4-4--7-6-4-4--7-6-4-4|
B|--0-0-0-0--0-0-0-0--0-0-0-0--0-0-0-0--0-0-0-0|
G|---------------------------------------------|
D|---------------------------------------------|
A|---------------------------------------------|
D|---------------------------------------------|

Bridge (Clean)
         'I want to put it  away..'
e|------------------------------------------------------------------|
B|---7---6---7---6------------------6-7-6-7-----6/7-6-7-*5----------|
G|-----6---6---6----6-6-4h6-4h6-3/6-------6â€"3-6-------6-*5--------|
D|------------------------------------------------------*5----------|
A|------------------------------------------------------------------|
D|------------------------------------------------------------------|

Outtro Chorus (Repeat)
   'All my    real   friends'
e|------------------------------------|
B|------------------------------------|
G|------------------------------------|
D|------------------------------------|
A|------------------------------------|
D|-10h11-14-11-----10h11-14-11--------|

Outtro
e|----------------------------------------------------------|
B|---12-11---------11-12-11---------------------------------|
G|---------11-10-11---------11-10-11-13-15/13-13-13-13-13-13|
D|----------------------------------------------------------|
A|----------------------------------------------------------|
D|----------------------------------------------------------|

e|-----------------------------------------|
B|---12-11---------11-12-11-------------14-|
G|---------11-10-11---------11-10-11-13----|
D|-----------------------------------------|
A|-----------------------------------------|
D|-----------------------------------------|

Lyrics:
ALL MY REAL FRIENDS

See, believe, forget me
My playful thoughts contrive
Nights concede to reckless
Versions of myself
All my real friends gather
Stay my wanting for a shield
I can't see you real

All I hate and all I fear
I bring it back to you, do you feel it
The night is gone and all we get
A picture for a poem, and we lose her
Alledged talk and I can't stop
I'm falling through the gates of resentment

Mine is sworn to think
In contrast of what we really are
Please, hiding thoughts
Life is lost
My turn at hope transpires
All my real friends gather
For their chances to receive
I can't see you real

All I hate and all I fear
I bring it back to you, do you feel it
The night is gone and all we get
A picture for a poem, and we lose her
Alledged talk and I can't stop
I'm falling through the gates of resentment

Bad news on the doorstep
I want to put it away
And I feel like I'm hopeless lost
In this hostile space
Real words escape me, I can't name it

All I hate and all I fear
I bring it back to you, do you feel it
The night is gone and all we get
A picture for a poem, and we lose her
Alledged talk and I can't stop
I'm falling through the gates of resentment
All my real friends
Suggest correction
Give kudos to tab author, rate the tab!
1 2 3 4 5
comments
print report bad tab
guest
You may want to rate the tab now too:
select rating
Wanna post a correction for this tab? Suggest correction