Oops, an error
Loading. Please wait.

Razor Hoof Tab

55 views 1 this week
no commentswrite comment
1 2 3 4 5
3 more votes to show rating
add to favorites
launch autoscroll
font size
0
reset
how to read this tab
guitar tuner
Autoscroll
slow
fast
+/-
esc
set tempo
stop
Help us to improve Ultimate-Guitar.com Take our survey!
×
Author
Difficulty
Tuning
intermediate
C F A# D# G C
Tuning: C standard


[Verse]

C |---------------------------------------------------------------------------|
F |---------------------------------------------------------------------------|
A#|---------------------------------------------------------------------------|
D#|--12-------9---------------------------------------------------------------|
G |--10-------7-9-9s-12--9-9-9-9-9-9-9-9-9s-12-7s-9---------------------------|
C |--10---0---7-7-7s-10--7-7-7-7-7-7-7-7-7s-10-5s-7-0-------------------------|


C |---------------------------------------------------------------------------|
F |---------------------------------------------------------------------------|
A#|---------------------------------------------------------------------------|
D#|--12-------9---------------------------------------------------------------|
G |--10-------7-9-9s-12--9-9-9-9-9-9-9-9-9s-12-7s-9---------------------------|
C |--10---0---7-7-7s-10--7-7-7-7-7-7-7-7-7s-10-5s-7-0-------------------------|


[Chorus]

C |---------------------------------------------------------------------------|
F |---------------------------------------------------------------------------|
A#|---------------------------------------------------------------------------|
D# |---------------------------------------------------------------------------|
G |-14s-12s-14-14-14-14s-12s-14-14-14-14s-12s-14-14s-12s-14-14-14-14s-12s-14--|
C |-12s-10s-12-0--0--12s-10s-12-0--0--12s-10s-12-12s-10s-12-0--0--12s-10s-12--|

C |---------------------------------------------------------------------------|
F |---------------------------------------------------------------------------|
A#|---------------------------------------------------------------------------|
D#|---------------------------------------------------------------------------|
G |-14-14-14s-12s-14-14-14-14---12---14---17---9---12---14v-----20-17-15-14---|
C |-0--0--12s-10s-12-0--0--12p0-10p0-12p0-15p0-7p0-10p0-12v-0-0-18-15-13-12---|


C |---------------------------------------------------------------------------|
F |---------------------------------------------------------------------------|
A#|---------------------------------------------------------------------------|
D#|---------------------------------------------------------------------------|
G |-14---14-14-14-14---14-14-14-20s-17-20s-17-20s-17-20s-17-20s-17--12-14-----|
C |-12p0-12-12-12-12p0-12-12-12-18s-15-18s-15-18s-15-18s-15-18s-15--10-12-----|


C |---------------------------------------------------------------------------|
F |---------------------------------------------------------------------------|
A#|---------------------------------------------------------------------------|
D#|---------------------------------------------------------------------------|
G |-14s-12s-14-14-14-14s-12s-14-14-14-14s-12s-14-14s-12s-14-14-14-14s-12s-14--|
C |-12s-10s-12-0--0--12s-10s-12-0--0--12s-10s-12-12s-10s-12-0--0--12s-10s-12--|

C |---------------------------------------------------------------------------|
F |---------------------------------------------------------------------------|
A#|---------------------------------------------------------------------------|
D#|---------------------------------------------------------------------------|
G |-14-14-14s-12s-14-14-14-14---12---14---17---9---12---14v-----20-17-15-14---|
C |-0--0--12s-10s-12-0--0--12p0-10p0-12p0-15p0-7p0-10p0-12v-0-0-18-15-13-12---|


C |---------------------------------------------------------------------------|
F |---------------------------------------------------------------------------|
A#|---------------------------------------------------------------------------|
D#|---------------------------------------------------------------------------|
G |-14---14-14-14-14---14-14-14-20s-17-20s-17-20s-17-20s-17-20s-17--12-14-----|
C |-12p0-12-12-12-12p0-12-12-12-18s-15-18s-15-18s-15-18s-15-18s-15--10-12-----|


[Verse]

C |---------------------------------------------------------------------------|
F |---------------------------------------------------------------------------|
A#|---------------------------------------------------------------------------|
D#|--12-------9---------------------------------------------------------------|
G |--10-------7-9-9s-12--9-9-9-9-9-9-9-9-9s-12-7s-9---------------------------|
C |--10---0---7-7-7s-10--7-7-7-7-7-7-7-7-7s-10-5s-7-0-------------------------|


C |---------------------------------------------------------------------------|
F |---------------------------------------------------------------------------|
A#|---------------------------------------------------------------------------|
D#|--12-------9---------------------------------------------------------------|
G |--10-------7-9-9s-12--9-9-9-9-9-9-9-9-9s-12-7s-9---------------------------|
C |--10---0---7-7-7s-10--7-7-7-7-7-7-7-7-7s-10-5s-7-0-------------------------|


[Outro]

C |---------------------------------------------------------------------------|
F |---------------------------------------------------------------------------|
A#|---------------------------------------------------------------------------|
D#|---------------------------------------------------------------------------|
G |-14--14-14--13s-14-13--13-13-12s-13------14--14-14-13-13--8s-9-8s-9-8s-9---|
C |-12--12-12--11s-12-11--11-11-10s-11-0s12-12--12-12-11-11--6s-7-6s-7-6s-7---|


C |---------------------------------------------------------------------------|
F |---------------------------------------------------------------------------|
A#|---------------------------------------------------------------------------|
D#|---------------------------------------------------------------------------|
G |-14--14-14--13s-14-13--13-13-12s-13------13--13-13-12-12--8s-9-8s-9-8s-9---|
C |-12--12-12--11s-12-11--11-11-10s-11-0s12-11--11-11-10-10--6s-7-6s-7-6s-7---|


C |---------------------------------------------------------------------------|
F |---------------------------------------------------------------------------|
A#|---------------------------------------------------------------------------|
D#|---------------------------------------------------------------------------|
G |-8s-9-9-9-8s-9-8-8-8-7s-8-7-----9-9-9-8-8-8s-9-8s-9-8s-9-------------------|
C |-6s-7-7-7-6s-7-6-6-6-5s-6-5-0---7-7-7-6-6-6s-7-6s-7-6s-7-------------------|


C |---------------------------------------------------------------------------|
F |---------------------------------------------------------------------------|
A#|---------------------------------------------------------------------------|
D#|---------------------------------------------------------------------------|
G |-8s-9-9-9-8s-9-8-8-8-7s-8-7-----8-8-8-7-7-4s-5-4s-5-4s-5-------------------|
C |-6s-7-7-7-6s-7-6-6-6-5s-6-5-0---6-6-6-5-5-2s-3-2s-3-2s-3-------------------|

C |---------------------------------------------------------------------------|
F |---------------------------------------------------------------------------|
A#|---------------------------------------------------------------------------|
D#|---------------------------------------------------------------------------|
G |-5-5-5-4s-5-4-2-2-3s-4-3s-4-7s-6-------------------------------------------|
C |-3-3-3-2s-3-2-2-2-1s-2-1s-2-5s-4-------------------------------------------|


************************************

| p  Pull-off
| s  Slide

************************************
Suggest correction
Give kudos to tab author, rate the tab!
1 2 3 4 5
comments
print report bad tab
guest
You may want to rate the tab now too:
select rating
Wanna post a correction for this tab? Suggest correction