Oops, an error
Loading. Please wait.

Serums Of Liao tab

292 views 1 this week
no commentswrite comment
1 2 3 4 5
3 more votes to show rating
add to favorites
×
Save as Personal and add changes to this tab that will be seen only by you. Learn more ›
×
You can save this tab as Personal to edit and correct it or add notes. All changes will be seen only by you. Learn more »
launch autoscroll
font size
0
reset
how to read this tab
guitar tuner
edit
Autoscroll
slow
fast
+/-
esc
set tempo
stop
-------------------------------------------------------------------------------
                             Serums Of Liao - High On Fire
-------------------------------------------------------------------------------
Tabbed by: colinembree1623
E-mail: colinembree@gmail.com

Tuning: C F A# D# G C
p = palm mute

|---------------------------------------------------------------------------|
|---------------------------------------------------------------------------|
|---------------------------------------------------------------------------|
|---------------------------------------------------------------------------|
|-3-3-3-3-3-3-6-6-6-6-6-6-3-3-3-3-3-3-9-9-9-8-8-8-9-9-9-6-6-6-6-6-6-6-6-6-6-|
|-1-1-1-1-1-1-4-4-4-4-4-4-1-1-1-1-1-1-7-7-7-6-6-6-7-7-7-4-4-4-4-4-4-4-4-4-4-| 

|---------------------------------------------------------------------------|
|---------------------------------------------------------------------------|
|---------------------------------------------------------------------------|
|-----------------0-0-2-2-3-------------------------------------------------|
|-6-6-2-2-2-2-2-2-0-0-2-2-3-------------------------------------------------|
|-4-4-0-0-0-0-0-0-----------------------------------------------------------|

|---------------------------------------------------------------------------|
|---------------------------------------------------------------------------|
|---------------------------------------------------------------------------|
|---------------------------------------------------------------------------|
|-3-3-3-3-3-3-6-6-6-6-6-6-3-3-3-3-3-3-9-9-9-8-8-8-9-9-9-6-6-6-6-6-6-6-6-6-6-|
|-1-1-1-1-1-1-4-4-4-4-4-4-1-1-1-1-1-1-7-7-7-6-6-6-7-7-7-4-4-4-4-4-4-4-4-4-4-|

|---------------------------------------------------------------------------|
|---------------------------------------------------------------------------|
|---------------------------------------------------------------------------|
|-----------------7-7-9-9-1010----------------------------------------------|
|-6-6-2-2-2-2-2-2-5-5-7-7-8-8-----------------------------------------------|
|-4-4-0-0-0-0-0-0-----------------------------------------------------------|Riff 1


|---------------------------------------------------------------------------|
|---------------------------------------------------------------------------|
|---------------------------------------------------------------------------|
|---------------------------------------------------------------------------|
|-12-12-12-12-12-12-2-12-12-12-12-12-2-12-12-12-12-12-12-12-12-12-12-12-------|
|-0--10-10-10-10-10-0-10-10-10-10-10-0-10-10-10-10-10-0--10-10-10-10-10-------|

|---------------------------------------------------------------------------|
|---------------------------------------------------------------------------|
|---------------------------------------------------------------------------|
|---------------------------------------------------------------------------|
|-2-2-2-2-2-2-7-7-7-7-7-7-2-2-2-2-2-2-5-5-7-8-7-----------------------------|
|-0-0-0-0-0-0-0-0-0-0-0-0-0-0-0-0-0-0-0-0-0-0-0-----------------------------|Riff 2

|---------------------------------------------------------------------------|
|---------------------------------------------------------------------------|
|---------------------------------------------------------------------------|
|---------------------------------------------------------------------------|
|-15-15-15-15-15-15-15-15-15-15-15-15-15-15-15-15-15-15-15-15-15-15-10-10---|
|-10-10-10-10-10-10-10-10-10-10-10-10-10-10-10-10-10-10-10-10-10-10-10-10---|

|---------------------------------------------------------------------------|
|---------------------------------------------------------------------------|
|---------------------------------------------------------------------------|
|---------------------------------------------------------------------------|
|-12-12-14-14-14-14-14-14-14-14-14-14-14-14-14-14-14-14-14-14-14-14-14-14---|
|-10-10-12-12-12-12-12-12-12-12-12-12-12-12-12-12-12-12-12-12-12-12-12-12---|

|---------------------------------------------------------------------------|
|---------------------------------------------------------------------------|
|---------------------------------------------------------------------------|
|---------------------------------------------------------------------------|
|-14-14---------------------------------------------------------------------|
|-12-12---------------------------------------------------------------------|Riff 3

Riff 2 , Riff 3 , Riff 1 

|-----------------------------------------------------------------------------------|
|-----------------------------------------------------------------------------------|
|-----------------------------------------------------------------------------------|
|-----------------------------------------------------------------------------------|
|-19-19-19-19-19-19-12-12-12-12-12-12-14-14-14-14-14-14-14-14-14-14-14-14-----------|
|-15-15-15-15-15-15-13-13-13-13-13-13-12-12-12-12-12-12-12-12-12-12-12-12-----------|

|-----------------------------------------------------------------------------------|
|-----------------------------------------------------------------------------------|
|-----------------------------------------------------------------------------------|
|-----------------------------------------------------------------------------------|
|-16-16-16-16-16-16-12-12-12-12-12-12-14-14-14-14-14-14-14-14-14-14-14-14-----------|
|-13-13-13-13-13-13-10-10-10-10-10-10-12-12-12-12-12-12-12-12-12-12-12-12-----------|

|-----------------------------------------------------------------------------------|
|-----------------------------------------------------------------------------------|
|-----------------------------------------------------------------------------------|
|-----------------------------------------------------------------------------------|
|-19-19-19-19-19-19-12-12-12-12-12-12-14-14-14-14-14-14-14-14-14-14-14-14-----------|
|-15-15-15-15-15-15-13-13-13-13-13-13-12-12-12-12-12-12-12-12-12-12-12-12-----------|

|-----------------------------------------------------------------------------------|
|-----------------------------------------------------------------------------------|
|-----------------------------------------------------------------------------------|
|-----------------------------------------------------------------------------------|
|-16-16-16-16-16-16-12-12-12-12-12-12-4 hold-3 hold---------------------------------|
|-13-13-13-13-13-13-10-10-10-10-10-10-3 hold-1 hold---------------------------------|

|--------------------------------------------------------------------------------------|
|--------------------------------------------------------------------------------------|
|--------------------------------------------------------------------------------------|
|---0-5-------------------------------------------5--5---------------------------------|
|-4-0-3-------------------------------------------3--3---------------------------------|
|-2-----2-2p-2p-2p-2p-2-2p-2p-2p-2p-2-2p-2p-2p-2p--2--2-2p-2p-2p-2p-2-2p-2p-2p-2p-2----|


|-----------------------------------------------------------------------------------------------|
|-----------------------------------------------------------------------------------------------|
|-----------------------------------------------------------------------------------------------|
|-------------3-5-6-------------------------------------------5--5------------------------------|
|-------------1-3-4-------------------------------------------3--3------------------------------|
|-2p-2p-2p-2p-------2-2p-2p-2p-2p-2-2p-2p-2p-2p-2-2p-2p-2p-2p--2--2-2p-2p-2p-2p-2-2p-2p-2p-2p-2-|

|----------------------------------------------------------------------------------------------|
|----------------------------------------------------------------------------------------------|
|----------------------------------------------------------------------------------------------|
|-------------3-6------------------------------------------9--9--------------------------------|
|-------------1-4------------------------------------------7--7--------------------------------|
|-2p-2p-2p-2p-----6p-6p-6p-6p-6-6p-6p-6p-6p-6-6p-6p-6p-6p---6--6-6p-6p-6p-6p-6-6p-6p-6p-6p-----|

|-----------------------------------------------------------------------------------------------|
|-----------------------------------------------------------------------------------------------|
|-----------------------------------------------------------------------------------------------|
|---------------3-5-6-------------------------------------------9--9----------------------------|
|---------------1-3-4-------------------------------------------7--7----------------------------|
|-6-6p-6p-6p-6p-------6-6p-6p-6p-6p-6-6p-6p-6p-6p-6-6p-6p-6p-6p--6--6-6p-6p-6p-6p-6-6p-6p-6p-6p-|

|-----------------------------------------------------------------------------------------|
|-----------------------------------------------------------------------------------------|
|-----------------------------------------------------------------------------------------|
|-3-5-6-----5-----------------------------------------------------------------------------|
|-1-3-4-4-0-3-----------------------------------------------------------------------------|
|-------2-0-------------------------------------------------------------------------------|

Repeat previous riffs

End with
|-----------------------------------------------------------------------------------------|
|-----------------------------------------------------------------------------------------|
|-----------------------------------------------------------------------------------------|
|---------0-5-----------------------------------------------------------------------------|
|-5-3---4-0-3-4---------------------------------------------------------------------------|
|-3-1---2-----2---------------------------------------------------------------------------|










            
            
Suggest correction
Creating personal tab
Creating personal tab
You can edit any tab online and save it as your Personal.

You can edit, replace or remove any tab part or add personal notes – all changes will be seen only by you.

Personal tabs can be accessed anytime from any device, even offline.
Learn more »
Give kudos to tab author, rate the tab!
1 2 3 4 5
comments
print report bad tab
guest
You may want to rate the tab now too:
select rating
Wanna post a correction for this tab? Suggest correction