Oops, an error
Loading. Please wait.

The Cave bass

652 views 1 this week
no commentswrite comment
1 2 3 4 5
2 more votes to show rating
add to favorites
×
Save as Personal and add changes to this tab that will be seen only by you. Learn more ›
×
You can save this tab as Personal to edit and correct it or add notes. All changes will be seen only by you. Learn more »
launch autoscroll
font size
0
reset
guitar tuner
edit
Autoscroll
slow
fast
+/-
esc
set tempo
stop
-------------------------------------------------------------------------------
                             THE CAVE - High on Fire
-------------------------------------------------------------------------------
Tabbed by: Stu Coolidge
E-mail: stcool@mymts.net

I heard this song a couple days ago and just love the bass-line. There's a few 
parts I play different from the song, but that the joy of improv. This is how
I play it. Listen for the feel

Tuning: C Standard (C-F-A#-Eb)

intro/verse (0:00-1:10)
Eb|----9---7---9---7-9-7----7----9----7----7h9p7----7----7--------------------|
A#|--7---7---7---7-------10---10---10---10-------10---10---8------------------|
F |---------------------------------------------------------------------------|
C |---------------------------------------------------------------------------|

pre-chorus (1:10-1:36)
Eb|------------------------------------------------------------------------------------|
A#|-------------------5\-----3\-----2\---------------------------3-----5-----2-----3---|
F |---------------3-3----3-3----3-3----3-3-3-0-0-------------3-3---3-3---3-3---3-3-----|
C |--5-5-3-5---5---------------------------------5-5-3-5---5---------------------------|

verse (1:36-2:18)
pre-chorus (2:18-2:45)

chorus (2:45-3:05)
Eb|-----------------------------------------------------------------------------|
A#|-----------------------------------------------------------------------------|
F |---------------------8--7-5--3--0-----------------------8--7-5--3--0---------|
C |--5--5-5--5-3--3--3------------------5--5-5--5-3--3--3-----------------------|

from here on out, add this note just before you go to the verse (see outro if you need)
Eb|----------|
A#|--5-------|
F |----------|
C |----------|

verse (3:08-3:50)
pre-choruse (3:50-4:17)
chorus (4:17-4:56)
verse (4:56-5:28)
pre-chorus (5:28-5:55)
chorus/solo (5:55-7:14)

outro (7:14-7:40)
Eb|-------9---7---9---7-9-7----7----9----7----7h9p7----7----7------9-------------|
A#|--5--7---7---7---7-------10---10---10---10-------10---10----8---7-------------|
F |----------------------------------------------------------------0-------------|
C |------------------------------------------------------------------------------|


| /  slide up
| \  slide down
| h  hammer-on
| p  pull-off
| ~  vibrato
| +  harmonic
| x  Mute note


I just jammed along a couple times, so there may be some parts not 100% correct, so feel
free to correct if needed.

enjoi.
Stu Cool
===============================================================================
Suggest correction
Creating personal tab
Creating personal tab
You can edit any tab online and save it as your Personal.

You can edit, replace or remove any tab part or add personal notes – all changes will be seen only by you.

Personal tabs can be accessed anytime from any device, even offline.
Learn more »
Give kudos to tab author, rate the tab!
1 2 3 4 5
comments
print report bad tab
guest
You may want to rate the tab now too:
select rating
Wanna post a correction for this tab? Suggest correction