Oops, an error
Loading. Please wait.

Jump In Tab

433 views 1 this week
no commentswrite comment
1 2 3 4 5
please rate
add to favorites
launch autoscroll
font size
0
reset
how to read this tab
guitar tuner
Autoscroll
slow
fast
+/-
esc
set tempo
stop
Help us to improve Ultimate-Guitar.com Take our survey!
×
Author
Difficulty
novice
     D
E |------------------------------------|
B |---------3--3-----------------------|
G |--2---2---------2----2---0----2-----|
D |------------------------------------|
A |------------------------------------|
E |------------------------------------|
     If you never take the first step

     D
E |------------------------------------|
B |-------3--3-------------------------|
G |--2-----------2---0--2--------------|
D |------------------------------------|
A |------------------------------------|
E |------------------------------------|
     You cannot go too far

     D
E |-----------2----2-------------------|
B |----------------------3-------------|
G |--2----2----------------------------|
D |------------------------------------|
A |------------------------------------|
E |------------------------------------|
     I'm sure you know that

     D
E |-------2----------2--2--------------|
B |-------------3-------------3--------|
G |--2-------------2-------------------|
D |------------------------------------|
A |------------------------------------|
E |------------------------------------|
    You strike me as a smart kid


     D
E |--------------2---2-----------------|
B |-----------------------3------------|
G |--2-----2---------------------------|
D |------------------------------------|
A |------------------------------------|
E |------------------------------------|
     And you've got big plans

     D
E |--2---2-----------------------------|
B |------------3-----------------------|
G |------------------------------------|
D |------------------------------------|
A |------------------------------------|
E |------------------------------------|
    And big dreams

     D
E |-------2---3------------------------|
B |----------------3-------------------|
G |---2--------------------------------|
D |------------------------------------|
A |------------------------------------|
E |------------------------------------|
     And big big goals

     D
E |----------0---0---------------------|
B |---3---3---------3------------------|
G |------------------------------------|
D |------------------------------------|
A |------------------------------------|
E |------------------------------------|
      So get a move on

     D
E |----0-------------------------------|
B |--------3---------------------------|
G |------------------------------------|
D |------------------------------------|
A |------------------------------------|
E |------------------------------------|
      Jump in

Chorus:
D
Hey
         G       D
We're jumpin' in
D
Today
-  D
It begins



    G           D
And oooh I'm so impressed
       G        D
'Cause you have done your best
    G       D
And we will get so much done
   G        D
Before this day is done

D
Hey
We're jumpin' in
Today
It begins

D
If we never take the first step
We cannot go too far
Let's get a move on
Jump in

http://www.myspace.com/hellohighplaces
Suggest correction new What's this?
You can suggest a correction to this tab. Community and Mods will review your correction and vote to approve or reject it.
comments
We did not receive enough feedback on this tab! Please rate:
print report bad tab
1 2 3 4 5
guest
You may want to rate the tab now too:
select rating
Please do not post tabs as comments. Select "correction" instead!