Oops, an error
Loading. Please wait.

The Art Of Getting By tab

220 views 3 this week
no commentswrite comment
1 2 3 4 5
2 more votes to show rating
add to favorites
×
Save as Personal and add changes to this tab that will be seen only by you. Learn more ›
×
You can save this tab as Personal to edit and correct it or add notes. All changes will be seen only by you. Learn more »
launch autoscroll
font size
0
reset
how to read this tab
guitar tuner
edit
Autoscroll
slow
fast
+/-
esc
set tempo
stop
Author
High Sunn - The Art Of Getting By
Track 4 from the album "Natural Instinct" (2016).

Listen here:
https://highsunn.bandcamp.com/album/natural-insinct

Tabbed by Isaac Murguia, August 2016.
Originally uploaded to Ultimate-Guitar.com
Contact: www.youtube.com/user/Goadiroth

INTRO:
e|----------------------------------|
B|----------------------------------|
G|---6---6---6---6---6---6---6---6--|
D|----------------------------------|
A|-00-000-044-444-455-555-577-777-7-|
E|----------------------------------| x2

CHORUS:
  Guitar 1
             x3
e|-------------------------|-------------------------|
B|-------------------------|-------------------------|
G|-14-14-14-13-13-13-13-13-|-16-16-16-16-16-16-16-13-|
D|-14-14-14-14-14-14-14-14-|-14-14-14-14-14-14-14-14-|
A|-------------------------|-------------------------|
E|-------------------------|-------------------------| x4
  Guitar 2
e|----------------------------------|
B|----------------------------------|
G|---6---6---6---6---6---6---6---6--|
D|----------------------------------|
A|-00-000-044-444-455-555-577-777-7-|
E|----------------------------------| x4

VERSE:
e|----------------------------------|    |-------------------------------|
B|----------------------------------|    |-------------------------------|
G|---6---6---6---6---6---6---6---6--|    |---6---6---6---6---6---6---6---|
D|----------------------------------|    |-------------------------------|
A|-00-000-044-444-455-555-577-777-7-|    |-00-000-044-444-455-555-577----|
E|----------------------------------| x4 |-------------------------------|

PRE-CHORUS:
  Guitar 1
             x4                        x4
e|-------------------------|-------------------------|
B|-------------------------|-------------------------|
G|-11-11-11-9--9--9--9--9--|-14-14-14-16-16-16-16-16-|
D|-11-11-11-11-11-11-11-11-|-16-16-16-16-16-16-16-16-|
A|-------------------------|-------------------------|
E|-------------------------|-------------------------|
             x4                        x3
e|-------------------------|-------------------------|---------|
B|-------------------------|-------------------------|---------|
G|-11-11-11-9--9--9--9--9--|-14-14-14-16-16-16-16-16-|-14------|
D|-11-11-11-11-11-11-11-11-|-16-16-16-16-16-16-16-16-|-16------|
A|-------------------------|-------------------------|---------|
E|-------------------------|-------------------------|---------|

  Guitar 2
          x2                         x2
e|-------------------|--------------------------------|
B|-5-55-555-0-00-000-|-10-1010-101010--0--0-0--0-0-0--|
G|-6-66-666-6-66-666-|-11-1111-111111--11-1111-111111-|
D|-7-77-777-7-77-777-|-12-1212-121212--12-1212-121212-|
A|-------------------|--------------------------------|
E|-------------------|--------------------------------|
          x2
e|-------------------|--------------------------------|--------------------|
B|-5-55-555-0-00-000-|-10-1010-101010--0--0-0--0-0-0--|-10-1010-101010--0--|
G|-6-66-666-6-66-666-|-11-1111-111111--11-1111-111111-|-11-1111-111111--11-|
D|-7-77-777-7-77-777-|-12-1212-121212--12-1212-121212-|-12-1212-121212--12-|
A|-------------------|--------------------------------|--------------------|
E|-------------------|--------------------------------|--------------------|

Repeat CHORUS (x2 instead of x4)
Repeat VERSE (x5 instead of x4)
Repeat PRE-CHORUS
Repeat INTRO
Repeat CHORUS (x2 instead of x4)

End. Please rate! :D

            
            
Suggest correction
Creating personal tab
Creating personal tab
You can edit any tab online and save it as your Personal.

You can edit, replace or remove any tab part or add personal notes – all changes will be seen only by you.

Personal tabs can be accessed anytime from any device, even offline.
Learn more »
Give kudos to tab author, rate the tab!
1 2 3 4 5
comments
print report bad tab
guest
You may want to rate the tab now too:
select rating
Wanna post a correction for this tab? Suggest correction