Oops, an error
Loading. Please wait.

This Promise I Swear Tab

224 views 3 this week
1 commentread comment
1 2 3 4 5
excellent!
x 1
add to favorites
launch autoscroll
font size
0
reset
how to read this tab
guitar tuner
Tab Pro tools
  • play this tab
  • loop segment
  • change instrument
  • show fretboard
  • metronome
Autoscroll
slow
fast
+/-
esc
set tempo
stop
Contributor
Difficulty
intermediate
for Petr Bena  because tabbing doesn't work well on youtube


chords consist of Aminor  f major  c major  g major  and e minor

--0--0-5-0-- 1-1-5-1----0--0-3--0-----3-------|
----1------1--1------1----1----1--3--3---3----|
------------------------------------0---0-----| X2
----------------------------------------------|
------------------------3-----3---------------|
--0----------1---------------------3----------|

  Am                 F                  C                   G


-----------------------------------0-----|
---------0-1-0--------0-----1-0----------|
--2-----2------0--0h2-- 2-------2--------|
----3------------0------2-2--------------|
------3-----------------0----------------|
--1----------3---------------------------|
- could also hit the 5* or the 12* whatevers clever
  F                    G                 Am



--------------0--0-0 ------------------------------------3-----------|
----0-1-0-1----1----3-1-3----0-------0-1-0----------0--0-------------|
-2-2-------2--------------0-0----2--2------2--0--0h2---0-------------|
--2--------------------------------2------------2------0-------------|
-0------------3------------------0------------3--------2-------------|
------1------------------3--------------1--------------3-------------|



----------------------------------------------------------------------------  -----2----3--|
-------------------------1--0--------------------------------------1--0-----------3---0----|
--2-2-0--4-4-2-0--4-2-4-2-----2-0-2--2-2-0--4-4-2-0---4---4-2 4--2--2---3-0---2-2---0------|
--3----3----------2------2------------3----3------------2-2-------2--2---0-----3-0---0-----|
------------------2------0--0---------------------------2---------0--0---2-----3----2------|
--1----    3--------0------------3------1------3---------0-----------------3----1-- -3-----|

This promise i swear



-------------------------------------------1--------------------3------------------|
--1-0---1-0------------------1-0---1-0----1-----0-1-0-1-3-1-1 0--0-----------------|
------2-----5-2-2-0-----0--------2--------2---2---0------------0-------------------|
------2-----3------2-0h2--0------2-------3--------2------------0-------------------|
------0-----3--  3---------2------0-------3--------3-----3-------2-----------------|
------------1-------------3--------------1---------------------3-------------------|
Then F then g then a minor  then loop the needed part.


solo chords used are f then d then a min then g



------------------------10b12'10-8-10-12-10------------------------------10-12-8-10-12-15-15 -|
---12b-13b--12-10-8-6-----------------------12b1312--10-8--6-5-6-5----------------------------|
---------------------------------------------------------------------7------------------------|
----------------------------------------------------------------------------------------------|
----------------------------------------------------------------------------------------------|
----------------------------------------------------------------------------------------------|



--12--15b 15--13-12-13-12 15-------15b17;15-12-13-12---------------------------------|
-----------------------------12-13--------------------15---12b13 12-10-10-8-6-5-6----|
-----------------------------------------------------------------------------------7-|
-------------------------------------------------------------------------------------|
-------------------------------------------------------------------------------------|
-------------------------------------------------------------------------------------|

----------------------------------|
-8-10-12-13-12-15 13 12--10-8-10--|
-9--------------------------------|
----------------------------------|
----------------------------------|
----------------------------------|
comments
We did not receive enough feedback on this tab! Please rate:
print report bad tab
1 2 3 4 5
1 comment total.
+1 reply
petrbn wrote on November 7 2012, 11:19 am

thanks! :D

I want to post or [tab]
guest
You may want to rate the tab now too:
select rating
Please do not post tabs as comments. Select "correction" instead!