Oops, an error
Loading. Please wait.

23 tab

352 views 36 this week
no commentswrite comment
1 2 3 4 5
2 more votes to show rating
add to favorites
×
Save as Personal and add changes to this tab that will be seen only by you. Learn more ›
×
You can save this tab as Personal to edit and correct it or add notes. All changes will be seen only by you. Learn more »
launch autoscroll
font size
0
reset
how to read this tab
guitar tuner
edit
Autoscroll
slow
fast
+/-
esc
set tempo
stop
About this tab version
Tabbed from the official recording. Was this info helpful? Yes No
The tuning for this should be E standard with the low E string dropped to A. 
They usually play E standard but you can see him tune down for some songs.

[Intro]
E|------------------------------------|---------------------------|
B|------------------------------------|---------------------------|
G|------------------------------------|---------------------------|
D|------------------------------------|---------------------------| (x4)
A|-0---0---15-15-15-15-15-15-15-15-15-|-0---0---9-9-9-9-9-9-9-9-9-|
A|-0---0---15-15-15-15-15-15-15-15-15-|-0---0---9-9-9-9-9-9-9-9-9-|

[Verse]
E|------------------------------------|---------------------------|
B|------------------------------------|---------------------------|
G|------------------------------------|---------------------------|
D|------------------------------------|---------------------------| (x3)
A|-0---0---15-15-15-15-15-15-15-15-15-|-0---0---9-9-9-9-9-9-9-9-9-|
A|-0---0---15-15-15-15-15-15-15-15-15-|-0---0---9-9-9-9-9-9-9-9-9-|

E|---------------------------|---------------------------|
B|---------------------------|---------------------------|
G|---------------------------|---------------------------|
D|---------------------------|---------------------------|
A|-0---0---8-8-8-8-8-8-8-8-8-|-0---0---5-5-5-5-5-5-5-5-5-|
A|-0---0---8-8-8-8-8-8-8-8-8-|-0---0---5-5-5-5-5-5-5-5-5-|

[Break]
E|------------------------|------------------------|
B|------------------------|------------------------|
G|------------------------|------------------------|
D|------------------------|------------------------|
A|-8--8--8--8--8--8--8--8-|-5--5--5--5---1---1-----|
A|-8--8--8--8--8--8--8--8-|-5--5--5--5---1---1-----|

E|------------------------------------|---------------------------|
B|------------------------------------|---------------------------|
G|------------------------------------|---------------------------|
D|------------------------------------|---------------------------|
A|-0---0---15-15-15-15-15-15-15-15-15-|-0---0---9-9-9-9-9-9-9-9-9-|
A|-0---0---15-15-15-15-15-15-15-15-15-|-0---0---9-9-9-9-9-9-9-9-9-|

E|------------------------------------|---------------------------|
B|------------------------------------|---------------------------|
G|------------------------------------|---------------------------|
D|------------------------------------|---------------------------| 
A|-0---0---15-15-15-15-15-15-15-15-15-|-0---0---9-9-9-9----9-9----|
A|-0---0---15-15-15-15-15-15-15-15-15-|-0---0---9-9-9-9----9-9----|

[Verse]
E|------------------------------------|---------------------------|
B|------------------------------------|---------------------------|
G|------------------------------------|---------------------------|
D|------------------------------------|---------------------------| (x3)
A|-0---0---15-15-15-15-15-15-15-15-15-|-0---0---9-9-9-9-9-9-9-9-9-|
A|-0---0---15-15-15-15-15-15-15-15-15-|-0---0---9-9-9-9-9-9-9-9-9-|

E|---------------------------|----------------------------|
B|---------------------------|----------------------------|
G|---------------------------|----------------------------|
D|---------------------------|----------------------------|
A|-0---0---8-8-8-8-8-8-8-8-8-|-0---0---5-5-5-5-5-5-5-5-5--|
A|-0---0---8-8-8-8-8-8-8-8-8-|-0---0---5-5-5-5-5-5-5-5-5-5|

[Chorus]
E|---------------------------|---------------------------|--------------------------|
B|---------------------------|---------------------------|--------------------------|
G|---------------------------|---------------------------|--------------------------|
D|---------------------------|---------------------------|--------------------------|
A|-8--8--8--8--8--8--8--8--8-|-5--5--5--5--5--5--5--5--5-|-0--0--0--0--0--0--0--0--0|
A|-8--8--8--8--8--8--8--8--8-|-5--5--5--5--5--5--5--5--5-|-0--0--0--0--0--0--0--0--0|

E|-----------------------------|
B|-----------------------------|
G|-----------------------------|
D|-----------------------------|  (x2) (all 4 bars)
A|-3--3--3--3--3--3/10--10--10-|
A|-3--3--3--3--3--3/10--10--10-|

E|---------------------------|------------------------------------|-----------------------------|
B|---------------------------|------------------------------------|-----------------------------|
G|---------------------------|------------------------------------|-----------------------------|
D|---------------------------|------------------------------------|-----------------------------|
A|-8--8--8--8--8--8--8--8--8-|-10--10--10--10--10--10--10--10--10-|-9--9--9--9--9--9--9--9--9---|
A|-8--8--8--8--8--8--8--8--8-|-10--10--10--10--10--10--10--10--10-|-9--9--9--9--9--9--9--9--9---|

E|---------------------------|---------------------------|--------------------|
B|---------------------------|---------------------------|--------------------|
G|---------------------------|---------------------------|--------------------|
D|---------------------------|---------------------------|--------------------|
A|-9--9--9--9--9--9--9--9--9-|-8--8--8--8--8--8--8--8--8-|-5--5--5--5---1--1--|
A|-9--9--9--9--9--9--9--9--9-|-8--8--8--8--8--8--8--8--8-|-5--5--5--5---1--1--|

[Break]
E|------------------------------------|---------------------------|
B|------------------------------------|---------------------------|
G|------------------------------------|---------------------------|
D|------------------------------------|---------------------------| (x2)
A|-0---0---15-15-15-15-15-15-15-15-15-|-0---0---9-9-9-9-9-9-9-9-9-|
A|-0---0---15-15-15-15-15-15-15-15-15-|-0---0---9-9-9-9-9-9-9-9-9-|

[Verse]
E|------------------------------------|---------------------------|
B|------------------------------------|---------------------------|
G|------------------------------------|---------------------------|
D|------------------------------------|---------------------------| (x4)
A|-0---0---15-15-15-15-15-15-15-15-15-|-0---0---9-9-9-9-9-9-9-9-9-|
A|-0---0---15-15-15-15-15-15-15-15-15-|-0---0---9-9-9-9-9-9-9-9-9-|

E|----------------------------------------|---------------------------|
B|----------------------------------------|---------------------------|
G|----------------------------------------|---------------------------|
D|----------------------------------------|---------------------------|
A|-12-12--12---15-15-15-15-15-15-15-15-15-|-0---0---9-9-9-9-9-9-9-9-9-|
A|-12-12--12---15-15-15-15-15-15-15-15-15-|-0---0---9-9-9-9-9-9-9-9-9-|

E|------------------------------------|---------------------------|
B|------------------------------------|---------------------------|
G|------------------------------------|---------------------------|
D|------------------------------------|---------------------------| (x2) 
A|-0---0---15-15-15-15-15-15-15-15-15-|-0---0---9-9-9-9-9-9-9-9-9-|
A|-0---0---15-15-15-15-15-15-15-15-15-|-0---0---9-9-9-9-9-9-9-9-9-|

E|---------------------------|---------------------------|
B|---------------------------|---------------------------|
G|---------------------------|---------------------------|
D|---------------------------|---------------------------|
A|-0---0---8-8-8-8-8-8-8-8-8-|-0---0---5-5-5-5-5-5-5-5-5-|
A|-0---0---8-8-8-8-8-8-8-8-8-|-0---0---5-5-5-5-5-5-5-5-5-|

[Chorus]
E|---------------------------|---------------------------|--------------------------|
B|---------------------------|---------------------------|--------------------------|
G|---------------------------|---------------------------|--------------------------|
D|---------------------------|---------------------------|--------------------------|
A|-8--8--8--8--8--8--8--8--8-|-5--5--5--5--5--5--5--5--5-|-0--0--0--0--0--0--0--0--0|
A|-8--8--8--8--8--8--8--8--8-|-5--5--5--5--5--5--5--5--5-|-0--0--0--0--0--0--0--0--0|

E|-----------------------------|
B|-----------------------------|
G|-----------------------------|
D|-----------------------------|  (x2) (all 4 bars)
A|-3--3--3--3--3--3/10--10--10-|
A|-3--3--3--3--3--3/10--10--10-|

E|---------------------------|------------------------------------|-----------------------------|
B|---------------------------|------------------------------------|-----------------------------|
G|---------------------------|------------------------------------|-----------------------------|
D|---------------------------|------------------------------------|-----------------------------|
A|-8--8--8--8--8--8--8--8--8-|-10--10--10--10--10--10--10--10--10-|-9--9--9--9--9--9--9--9--9---|
A|-8--8--8--8--8--8--8--8--8-|-10--10--10--10--10--10--10--10--10-|-9--9--9--9--9--9--9--9--9---|

E|---------------------------|---------------------------|--------------------|
B|---------------------------|---------------------------|--------------------|
G|---------------------------|---------------------------|--------------------|
D|---------------------------|---------------------------|--------------------|
A|-9--9--9--9--9--9--9--9--9-|-8--8--8--8--8--8--8--8--8-|-5--5--5--5---1--1--|
A|-9--9--9--9--9--9--9--9--9-|-8--8--8--8--8--8--8--8--8-|-5--5--5--5---1--1--|

[Bridge]
E|-----------------------|--------------------|
B|-----------------------|--------------------|
G|-----------------------|--------------------|
D|-----------------------|--------------------| (x2)
A|-/12--\--5--5----8-----|-5----0-3--2--0-----|
A|-/12--\--5--5----8-----|-5----0-3--2--0-----|

[Solo]
E|------------------------------------|---------------------------------|
B|------------------------------------|--------------------13--(13)-15--|
G|------------------------------------|------------------14--14-14------|
D|------------------------------------|---------------------------------| (x4)
A|-0---0---15-15-15-15-15-15-15-15-15-|-0---0---------------------------|
A|-0---0---15-15-15-15-15-15-15-15-15-|-0---0---------------------------|

   ( No bend release)                        (Little bend release)
E|-12---12---12-12-12-12-12-12-12-12-12-|-12-12----12-12-12-12-12-12-12-12-12-|
B|-15b--15b--15b5b15b15b15b15b15b15b15--|-15b-15b--15b5b15b15b15b15b15b15b15--|
G|--------------------------------------|-------------------------------------|
D|--------------------------------------|-------------------------------------| 
A|--------------------------------------|-------------------------------------|
A|--------------------------------------|-------------------------------------|
 
      (more bend release)                                                                  
E|-12---12---12-12-12-12-12-12-12-12-12-|-12-12--------------------------------|
B|-15b--15b--15b15b15b15b15b15b15b15b15-|-15b-15b-------12-14~14~14--14-14-14--|
G|--------------------------------------|------------/14-----------------------|
D|--------------------------------------|--------------------------------------| 
A|--------------------------------------|--------------------------------------|
A|--------------------------------------|--------------------------------------|

  First bend is 1+1/2 , second is 1 .
E|----------------------------------------------|-12--12--12-12-12-12-12-12-12-12-12---| 
B|---------------------------------12-12-15-15--|-15b-15b-15b15b15b15b15b15b15b15b15b--| 
G|--14b--14b--14-12-------14-14-14--------------|--------------------------------------| 
D|------------------14--14----------------------|--------------------------------------| 
A|----------------------------------------------|--------------------------------------|
A|----------------------------------------------|--------------------------------------|

E|-----------------------------------------|12--12--12-12-12-12-12-12-12-12-12----| 
B|--------------------------------------15-|-15b-15b-15b15b15b15b15b15b15b15b15b--| 
G|--12--14--12h14p12---12-14-14-12-14-14---|--------------------------------------|
D|--12---------------14--------------------|--------------------------------------| 
A|-----------------------------------------|--------------------------------------|
A|-----------------------------------------|--------------------------------------|

[Chorus]
E|---------------------------|---------------------------|--------------------------|
B|---------------------------|---------------------------|--------------------------|
G|---------------------------|---------------------------|--------------------------|
D|---------------------------|---------------------------|--------------------------|
A|-8--8--8--8--8--8--8--8--8-|-5--5--5--5--5--5--5--5--5-|-0--0--0--0--0--0--0--0--0|
A|-8--8--8--8--8--8--8--8--8-|-5--5--5--5--5--5--5--5--5-|-0--0--0--0--0--0--0--0--0|

E|-----------------------------|
B|-----------------------------|
G|-----------------------------|
D|-----------------------------|  (x2) (all 4 bars)
A|-3--3--3--3--3--3/10--10--10-|
A|-3--3--3--3--3--3/10--10--10-|

E|---------------------------|------------------------------------|-----------------------------|
B|---------------------------|------------------------------------|-----------------------------|
G|---------------------------|------------------------------------|-----------------------------|
D|---------------------------|------------------------------------|-----------------------------|
A|-8--8--8--8--8--8--8--8--8-|-10--10--10--10--10--10--10--10--10-|-9--9--9--9--9--9--9--9--9---|
A|-8--8--8--8--8--8--8--8--8-|-10--10--10--10--10--10--10--10--10-|-9--9--9--9--9--9--9--9--9---|

E|---------------------------|---------------------------|--------------------|
B|---------------------------|---------------------------|--------------------|
G|---------------------------|---------------------------|--------------------|
D|---------------------------|---------------------------|--------------------|
A|-9--9--9--9--9--9--9--9--9-|-8--8--8--8--8--8--8--8--8-|-5--5--5--5---1--1--|
A|-9--9--9--9--9--9--9--9--9-|-8--8--8--8--8--8--8--8--8-|-5--5--5--5---1--1--|

[Outro]
E|------------------------------------|---------------------------|
B|------------------------------------|---------------------------|
G|------------------------------------|---------------------------|
D|------------------------------------|---------------------------|
A|-0---0---15-15-15-15-15-15-15-15-15-|-0---0---9-9-9-9-9-9-9-9---|
A|-0---0---15-15-15-15-15-15-15-15-15-|-0---0---9-9-9-9-9-9-9-9---|


***********************************

| /   Slide up
| \   Slide down
| h   Hammer-on
| p   Pull-off
| ~   Vibrato
| b   Bend

***********************************
Suggest correction
Creating personal tab
Creating personal tab
You can edit any tab online and save it as your Personal.

You can edit, replace or remove any tab part or add personal notes – all changes will be seen only by you.

Personal tabs can be accessed anytime from any device, even offline.
Learn more »
Give kudos to tab author, rate the tab!
1 2 3 4 5
comments
print report bad tab
guest
You may want to rate the tab now too:
select rating
Wanna post a correction for this tab? Suggest correction