Oops, an error
Loading. Please wait.

Bath Salts Bass Tab

version 1
version 1

Whole song

  • This is the album version not the single.

Interactive

130 views 30 this week
no commentswrite comment
1 2 3 4 5
1 last vote to show rating
add to favorites
launch autoscroll
font size
0
reset
guitar tuner
Autoscroll
slow
fast
+/-
esc
set tempo
stop
Help us to improve Ultimate-Guitar.com Take our survey!
×
Author
Difficulty
novice
About this tab version
This is the album version not the single. Was this info helpful? Yes No
[Intro] 0:08

G|---------------------------------------------------------------------------|
D|----7---7---7---7---7---7---7---7---3---3---3---3---2---2---6---6----------|
A|---------------------------------------------------------------------------|
E|--5---5---5---5---5---5---5---5---1---1---1---1---0---0---4---4------------|

G|---------------------------------------------------------------------------|
D|----7---7---7---7---7---7-------------3---3---3---3---2---2---6---6--------|
A|----------------------------7-7-7-7----------------------------------------|
E|--5---5---5---5---5---5-------------1---1---1---1---0---0---4---4----------|

[Verse] 0:23

G|---------------------------------------------------------------------------|
D|----7---7---7---7---7---7---7---7---3---3---3---3---2---2---6---6----------|
A|---------------------------------------------------------------------------|
E|--5---5---5---5---5---5---5---5---1---1---1---1---0---0---4---4------------|

G|------------------------------------10--10--10--10--9---9------------------|
D|----7---7---7---7---7---7---7---7---------------------------6---6----------|
A|----------------------------------8---8---8---8---7---7--------------------|
E|--5---5---5---5---5---5---7---8---------------------------4---4------------|

[Pre-Chorus] 0:40

G|---------------------------------------------------------------------------|
D|-------7-----7-----7----7--------------------------------------------------|
A|---------------------------------------------------------------------------|
E|----5-----5-----5-----5----------------------------------------------------|

G|---------------------------------------------------------------------------|
D|-------------------7--7--7--7-------------------3--3--3--3--2--2--6--6-----|
A|--------------------------------7--10--------------------------------------|
E|--5-7-8-10-1-0-4-5--5--5--5------------8--7---1--1--1--1--0--0--4--4-------|

[Chorus] 0:53

G|---------------------------------------------------------------------------|
D|---------------------------------------------------------------------------|
A|---------------------------------------------------------------------------|
E|--5-5------5-5------1--0--4------------------------------------------------| x2

[Verse] 1:08 (No Bass)

[Pre-Chorus] 1:23

G|---------------------------------------------------------------------------|
D|-----------------------7--7--7--7-------------------3--3--3--3--2--2--6--6-|
A|------------------------------------7--10----------------------------------|
E|--5----5-7-8-10-1-0-4-5--5--5--5------------8--7---1--1--1--1--0--0--4--4--|

[Chorus] 1:38

G|---------------------------------------------------------------------------|
D|---------------------------------------------------------------------------|
A|---------------------------------------------------------------------------|
E|--5-5------5-5------1--0--4-4----------------------------------------------| x2

[Bridge] 1:55

G|---------------------------------------------------------------------------|
D|---------------------------------------------------------------------------|
A|---------------------------------------------------------------------------|
E|--5--5----0--0----1--1----8--8--7--7---------------------------------------| x4

G|---------------------------------------------------------------------------|
D|----7---7---7---7---7---7---7---7---3---3---3---3---2---2---6---6----------|
A|---------------------------------------------------------------------------|
E|--5---5---5---5---5---5---5---5---1---1---1---1---0---0---4---4------------|

G|------------------------------------10--10--10--10--9---9------------------|
D|----7---7---7---7---7---7---7---7---------------------------6---6----------|
A|----------------------------------8---8---8---8---7---7--------------------|
E|--5---5---5---5---5---5---7---8---------------------------4---4-----5--5---|

[Breakdown] 2:41 (No Bass)

[Solo] 3:11

G|---------------------------------------------------------------------------|
D|----7---7---7---7---7---7---7---7---3---3---3---3---2---2---6---6----------|
A|---------------------------------------------------------------------------|
E|--5---5---5---5---5---5---5---5---1---1---1---1---0---0---4---4------------|

G|---------------------------------------10--10--10--10--9----9----8----7----|
D|----7---7---7---7---7---7--------------------------------------------------|
A|----------------------------7-7-7-7--8---8---8---8---7--7-7--7-6--6-5--5---|
E|--5---5---5---5---5---5----------------------------------------------------|


G|---------------------------------------------------------------------------|
D|----7---7---7---7---7---7---7---7---3---3---3---3---2---2---6---6----------|
A|---------------------------------------------------------------------------|
E|--5---5---5---5---5---5---5---5---1---1---1---1---0---0---4---4------------| x2

[Outro] 3:41

G|---------------------------------------------------------------------------|
D|----7---7---7---7---7---7---7---7---3---3---3---3---2---2---6---6----------|
A|---------------------------------------------------------------------------|
E|--5---5---5---5---5---5---5---5---1---1---1---1---0---0---4---4------------|

G|------------------------------------10--10--10--10--9---9------------------|
D|----7---7---7---7---7---7---7---7---------------------------6---6----------|
A|----------------------------------8---8---8---8---7---7--------------------|
E|--5---5---5---5---5---5---7---8---------------------------4---4-----5--5---|

************************************

|(xn)Repeat (n) times 

************************************
Suggest correction
Give kudos to tab author, rate the tab!
1 2 3 4 5
comments
print report bad tab
guest
You may want to rate the tab now too:
select rating
Wanna post a correction for this tab? Suggest correction