Oops, an error
Loading. Please wait.

Bath Salts Tab

version 2
version 2

Whole song

Interactive

817 views 63 this week
no commentswrite comment
1 2 3 4 5
x 4
add to favorites
launch autoscroll
font size
0
reset
how to read this tab
guitar tuner
Autoscroll
slow
fast
+/-
esc
set tempo
stop
Help us to improve Ultimate-Guitar.com Take our survey!
×
Author
Note: This tab is for the studio version, not the music video on Youtube. Credit also goes to Jacksonj602 for 
originally tabbing the Youtube version.

MCID.

[Intro]

0:00
e|---------------------------------------------------------------------------|
B|---------------------------------------------------------------------------|
G|---------------------------------------------------------------------------|
D|-7--------3-------2-------6------------------------------------------------|
A|-x-(x16)--x-(x8)--x-(x4)--x-(x1)-------------------------------------------|
E|-5--------1-------0-------4------------------------------------------------|

e|---------------------------------------------------------------------------|
B|---------------------------------------------------------------------------|
G|---------------------------------------------------------------------------|
D|-7--------3-------2-------6------------------------------------------------|     x2
A|-x-(x16)--x-(x8)--x-(x4)--x-(x4)-------------------------------------------|
E|-5--------1-------0-------4------------------------------------------------|


[Verse 1]

0:39
e|---------------------------------------------------------------------------|
B|---------------------------------------------------------------------------|
G|---------------------------------------------------------------------------|
D|-7--9--10-12--3----2---6---7-----------------------------------------------|
A|-x--x--x--x---x----x---x---x-----------------------------------------------|
E|-5--7--8--10--1----0---4---5-----------------------------------------------|


[Chorus 1]

0:52
e|---------------------------------------------------------------------------|
B|-----10--------13--------------------------------------------------------=-|
G|-----12b-------15b---------------------------------------------------------|     x2
D|-7-7------7-7-------3-----10-10---2--6-------------------------------------|
A|-x-x------x-x-------x--/12--------x--x-------------------------------------|
E|-5-5------5-5-------1-------------0--4-------------------------------------|


[Verse 2]

1:23
e|---------------------------------------------------------------------------|
B|---------------------------------------------------------------------------|
G|---------------------------------------------------------------------------|
D|-7----7--9--10-12--3----2---6---7------------------------------------------|
A|-x----x--x--x--x---x----x---x---x------------------------------------------|
E|-5----5--7--8--10--1----0---4---5------------------------------------------|


[Chorus 2]

1:38
e|---------------------------------------------------------------------------|
B|-----10--------13--------------------------------------------------------=-|
G|-----12b-------15b---------------------------------------------------------|     
D|-7-7------7-7-------3-----10-10---2--6-------------------------------------|
A|-x-x------x-x-------x--/12--------x--x-------------------------------------|
E|-5-5------5-5-------1-------------0--4-------------------------------------|

e|---------------------------------------------------------------------------|
B|-----10--------17--------------------------------------------------------=-|
G|-----12b-------19b---------------------------------------------------------|     
D|-7-7------7-7-------3-----10-10---2--6-------------------------------------|
A|-x-x------x-x-------x--/12--------x--x-------------------------------------|
E|-5-5------5-5-------1-------------0--4-------------------------------------|

[Bridge]

1:55
e|---------------------------------------------------------------------------|
B|---------------------------------------------------------------------------|
G|---------------------------------------------------------------------------|
D|-7-7--7-7---2-2--2-2---3-3--3-3---10-10--9-9-------------------------------|     x4
A|-x-x--x-x---x-x--x-x---x-x--x-x---x--x---x-x-------------------------------|
E|-5-5--5-5---0-0--0-0---1-1--1-1---8--8---7-7-------------------------------|

e|---------------------------------------------------------------------------|
B|---------------------------------------------------------------------------|
G|---------------------------------------------------------------------------|
D|-7--------3-------2-------6------------------------------------------------|     
A|-x-(x16)--x-(x8)--x-(x4)--x-(x4)-------------------------------------------|
E|-5--------1-------0-------4------------------------------------------------|

e|---------------------------------------------------------------------------|
B|---------------------------------------------------------------------------|
G|---------------------------------------------------------------------------|
D|-7--------9--10----3-------2-------6-------7-------------------------------|     
A|-x-(x12)--x--x-----x-(x8)--x-(x4)--x-(x4)--x-------------------------------|
E|-5--------7--8-----1-------0-------4-------5-------------------------------|


2:46
e|---------------------------------------------------------------------------|
B|---------------------------------------------------------------------------|
G|---------------------------------------------------------------------------|
D|--7\5\3--------3-5-5-2-2---------------------------------------------------|
A|--x-x-x--------x-x-x-x-x---------------------------------------------------|
E|--5\3\1--------1-3-3-0-0---------------------------------------------------|


[Solo]

3:11
e|---------------------------------------------------------------------------|
B|---------------------------------------------------------------------------|
G|-----5-7b--------5-5v\--------5-7b--5-5-5--5-5-5\--------------------------|
D|-7-7---------7-7----------3-3--------7------7------------------------------|
A|-x-x---------x-x----------x-x----------------------------------------------|
E|-5-5---------5-5----------1-1----------------------------------------------|

e|---------------------------------------------------------------------------|
B|-----------------------------10-8------------------------------------------|
G|-----5-7b--------5-5v----7/9------9-7-7br---5-(7)-7/9(x4)------------------|
D|-7-7---------7-7--------------------------7--------------------------------|
A|-x-x---------x-x-----------------------------------------------------------|
E|-5-5---------5-5-----------------------------------------------------------|

e|------------------17---------------------------------------------------------17------|
B|-/13-15-13-15b-17----15br13p----13-13-13---13-15-15b----13-13----13-15-15/17----17-15|
G|-----------------------------14----------14----------14-------14---------------------|
D|-------------------------------------------------------------------------------------|
A|-------------------------------------------------------------------------------------|
E|-------------------------------------------------------------------------------------|

e|---17-15--------17-15--------17-15--------17----20b-20br17-17--------------|
B|-17-----17-15-17-----17-15-17-----17-15-17---------------------15b--13-13\-|
G|-------------------------------------------------------------------14------|
D|---------------------------------------------------------------------------|
A|---------------------------------------------------------------------------|
E|---------------------------------------------------------------------------|


[Outro]

3:41
e|---------------------------------------------------------------------------|
B|---------------------------------------------------------------------------|
G|---------------------------------------------------------------------------|
D|-7--------3-------2-------6------------------------------------------------|     
A|-x-(x16)--x-(x8)--x-(x4)--x-(x4)-------------------------------------------|
E|-5--------1-------0-------4------------------------------------------------|

e|---------------------------------------------------------------------------|
B|------------------------------------------10--10\---------------------------|
G|------------------------------------------12b-12b\--------------------------|
D|-7--------9--10----3-------2-------6---------------------------------------|     
A|-x-(x12)--x--x-----x-(x8)--x-(x4)--x-(x4)----------------------------------|
E|-5--------7--8-----1-------0-------4---------------------------------------|
************************************

| x   Dead note
| (n) Ghost note
| h   Hammer-on
| p   Pull-off
| r   Release
| b   Bend
| br  Bend release
| /   Slide up
| \   Slide down
| v   Vibrato

************************************
Suggest correction
comments
print report bad tab
guest
You may want to rate the tab now too:
select rating
Wanna post a correction for this tab? Suggest correction