Oops, an error
Loading. Please wait.

Bath Salts Tab

version 3
version 3

Whole song

Interactive

235 views 18 this week
no commentswrite comment
1 2 3 4 5
2 more votes to show rating
add to favorites
launch autoscroll
font size
0
reset
how to read this tab
guitar tuner
Autoscroll
slow
fast
+/-
esc
set tempo
stop
Help us to improve Ultimate-Guitar.com Take our survey!
×
Author
Difficulty
intermediate
Tabbed by ear for this version: https://www.youtube.com/watch?v=79Nqi_grCkA 
I have also uploaded a GuitarPro version of the whole song, with bass and drums.

[Intro]

e|-----------------|-----------------|-----------------|------------------------|
B|-----------------|-----------------|-----------------|------------------------|
G|-----------------|-----------------|-----------------|------------------------|
D|-7-7-7-7-7-7-7-7-|-7-7-7-7-7-7-7-7-|-3-3-3-3-3-3-3-3-|-2-2-2-2-6--------------|
A|-x-x-x-x-x-x-x-x-|-x-x-x-x-x-x-x-x-|-x-x-x-x-x-x-x-x-|-x-x-x-x-x--------------|
E|-5-5-5-5-5-5-5-5-|-5-5-5-5-5-5-5-5-|-1-1-1-1-1-1-1-1-|-0-0-0-0-4--------------|

e|-----------------|-----------------|-----------------|------------------------|
B|-----------------|-----------------|-----------------|------------------------|
G|-----------------|-----------------|-----------------|------------------------|
D|-7-7-7-7-7-7-7-7-|-7-7-7-7-7-7-7-7-|-3-3-3-3-3-3-3-3-|-2-2-2-2-6-6-6-6--------|
A|-x-x-x-x-x-x-x-x-|-x-x-x-x-x-x-x-x-|-x-x-x-x-x-x-x-x-|-x-x-x-x-x-x-x-x--------|
E|-5-5-5-5-5-5-5-5-|-5-5-5-5-5-5-5-5-|-1-1-1-1-1-1-1-1-|-0-0-0-0-4-4-4-4--------|



[Verse]

*9 bars rest*
                                 Ηold this A5 chord for all 4 bars until the chorus
e|--------------|-------|----------|--------|-------|-------|------|
B|--------------|-------|----------|--------|-------|-------|------|
G|--------------|-------|----------|--------|-------|-------|------|
D|-7--9--10--12-|--3----|--2---6---|--7-----|-------|-------|------|
A|-x--x--x---x--|--x----|--x---x---|--x-----|-------|-------|------|
E|-5--7--8---10-|--1----|--0---4---|--5-----|-------|-------|------|


[Chorus]

e|----------|----------|----------------|---------------| ]
B|------10--|------13--|----------------|---------------| ]
G|------12b-|------15b-|----------------|---------------| ]  x2
D|-7-7------|-7-7------|--3-----10-10\--|-2---6---------| ]
A|-x-x------|-x-x------|--x--/12--------|-x---x---------| ]
E|-5-5------|-5-5------|--1-------------|-0---4---------| ]


[Verse]

*8 bars rest*
                                          Ηold this A5 chord for all 4 bars until the chorus
e|------|---------------|-------|---------|-------|-------|-------|------|
B|------|---------------|-------|---------|-------|-------|-------|------|
G|------|---------------|-------|---------|-------|-------|-------|------|
D|--7---|-7--9--10--12--|--3----|-2---6---|--7----|-------|-------|------|
A|--x---|-x--x--x---x---|--x----|-x---x---|--x----|-------|-------|------|
E|--5---|-5--7--8---10--|--1----|-0---4---|--5----|-------|-------|------|


[Chorus]

e|----------|----------|----------------|-----------|----------|----------|----------------|------------|  
B|------10--|------13--|----------------|-----------|------10--|------17--|----------------|------------| 
G|------12b-|------15b-|----------------|-----------|------12b-|------19b-|----------------|------------|   
D|-7-7------|-7-7------|--3-----10-10\--|-2---6-----|-7-7------|-7-7------|--3-----10-10\--|-2---6------| 
A|-x-x------|-x-x------|--x--/12--------|-x---x-----|-x-x------|-x-x------|--x--/12--------|-x---x------|  
E|-5-5------|-5-5------|--1-------------|-0---4-----|-5-5------|-5-5------|--1-------------|-0---4------|  

[Bridge]

*1 bar rest*
These are triplets. Listen to the song to better understand which strokes are accented.
   
[  e|-------------------------|-7-7-7-7-7-7-7-7-7-7-7-7-|-8--8--8--8--8--8--8--8--8--8--8--8--|
[  B|-------------------------|-9-9-9-9-9-9-9-9-9-9-9-9-|-10-10-10-10-10-10-10-10-10-10-10-10-|
[  G|-------------------------|-9-9-9-9-9-9-9-9-9-9-9-9-|-10-10-10-10-10-10-10-10-10-10-10-10-|
[  D|-7-7-7-7-7-7-7-7-7-7-7-7-|-9-9-9-9-9-9-9-9-9-9-9-9-|-10-10-10-10-10-10-10-10-10-10-10-10-|
[  A|-x-x-x-x-x-x-x-x-x-x-x-x-|-7-7-7-7-7-7-7-7-7-7-7-7-|-8--8--8--8--8--8--8--8--8--8--8--8--|
[  E|-5-5-5-5-5-5-5-5-5-5-5-5-|-------------------------|-------------------------------------|
      >   >       >             >   >       >             >     >           > 

e|-8--8--8--8--8--8--7--7--7--7--7--7-| ]
B|-8--8--8--8--8--8--7--7--7--7--7--7-| ]
G|-9--9--9--9--9--9--8--8--8--8--8--8-| ]  x4 (all 4 bars)
D|-10-10-10-10-10-10-9--9--9--9--9--9-| ] 
A|-10-10-10-10-10-10-9--9--9--9--9--9-| ]
E|-8--8--8--8--8--8--7--7--7--7--7--7-| ]
   >                 >               

e|-----------------|-----------------|-----------------|-----------------|--------|
B|-----------------|-----------------|-----------------|-----------------|--------|
G|-----------------|-----------------|-----------------|-----------------|--------|
D|-7-7-7-7-7-7-7-7-|-7-7-7-7-7-7-7-7-|-3-3-3-3-3-3-3-3-|-2-2-2-2-6-6-6-6-|-7-7----|
A|-x-x-x-x-x-x-x-x-|-x-x-x-x-x-x-x-x-|-x-x-x-x-x-x-x-x-|-x-x-x-x-x-x-x-x-|-x-x----|
E|-5-5-5-5-5-5-5-5-|-5-5-5-5-5-5-5-5-|-1-1-1-1-1-1-1-1-|-0-0-0-0-4-4-4-4-|-5-5----|

e|---------------------------------------------------------------------------|
B|---------------------------------------------------------------------------|
G|---------------------------------------------------------------------------|
D|--7\5\3--------3/5-5\2-2---------------------------------------------------|
A|--x-x-x--------x-x-x-x-x---------------------------------------------------|
E|--5\3\1--------1/3-3\0-0---------------------------------------------------|

[Solo]

e|--------------|----------------|---------------|-----------------|--------------|-------------------|
B|--------------|----------------|---------------|-----------------|-----------5--|-------------------|
G|---------5-7b-|----------5-5v\-|---------5-7b--|5-5---5--5--5\---|---------5-7b-|----------5-5v\--5-|
D|-7-7-7-7------|-7-7-7-7--------|-3-3-3-3------7|--------7--------|-7-7-7-7------|-7-7-7-7-----------|
A|-x-x-x-x------|-x-x-x-x--------|-x-x-x-x-------|-----------------|-x-x-x-x------|-x-x-x-x-----------|
E|-5-5-5-5------|-5-5-5-5--------|-1-1-1-1-------|-----------------|-5-5-5-5------|-5-5-5-5-----------|

e|----5-----------------|--------------------------------|--------------17-----|------------------------|
B|---5--8-5-------------|--g7/8-8-8-/8-8-8-/8-8-8-/8-8-8-|-------------17------|------------------------|
G|-7b-------7-7b---5--7-|--g8/9-9-9-/9-9-9-/9-9-9-/9-9-9-|-17--19-17-19b---19b-|---r---17-17------------|
D|----------------7-----|--------------------------------|---------------------|-----19-----------------|
A|----------------------|--------------------------------|---------------------|------------------------|
E|----------------------|--------------------------------|---------------------|------------------------|

e|-----------------------|--------------17-17-----|---17----------17-----------17-|-----------17-17------20b-|
B|-----------------------|------------17-----17---|-17--20-17---17--20-17----17---|-20-17---17-----17-17-----|
G|---17-19-19b-r---17-17-|---17-19-19b---------19-|-----------19----------19------|-------19-----------------|
D|-19------------19------|-19---------------------|-------------------------------|--------------------------|
A|-----------------------|------------------------|-------------------------------|--------------------------|
E|-----------------------|------------------------|-------------------------------|--------------------------|

e|--20br------|-------------|
B|--------20b-|-------------|
G|------------|---19br--17--|
D|------------|-------19----|
A|------------|-------------|
E|------------|-------------|


[Outro]

e|-----------------|-----------------|-----------------|------------------------|
B|-----------------|-----------------|-----------------|------------------------|
G|-----------------|-----------------|-----------------|------------------------|
D|-7-7-7-7-7-7-7-7-|-7-7-7-7-7-7-7-7-|-3-3-3-3-3-3-3-3-|-2-2-2-2-6-6-6-6--------|
A|-x-x-x-x-x-x-x-x-|-x-x-x-x-x-x-x-x-|-x-x-x-x-x-x-x-x-|-x-x-x-x-x-x-x-x--------|
E|-5-5-5-5-5-5-5-5-|-5-5-5-5-5-5-5-5-|-1-1-1-1-1-1-1-1-|-0-0-0-0-4-4-4-4--------|

e|-----------------|-------------------|-----------------|------------------|-----------|
B|-----------------|-------------------|-----------------|------------------|-10---10----|
G|-----------------|-------------------|-----------------|------------------|-12b--12b--|
D|-7-7-7-7-7-7-7-7-|-7-7-7-7-9-9-10-10-|-3-3-3-3-3-3-3-3-|-2-2-2-2-6-6-6-6--|-----------|
A|-x-x-x-x-x-x-x-x-|-x-x-x-x-x-x-x--x--|-x-x-x-x-x-x-x-x-|-x-x-x-x-x-x-x-x--|-----------|
E|-5-5-5-5-5-5-5-5-|-5-5-5-5-7-7-8--8--|-1-1-1-1-1-1-1-1-|-0-0-0-0-4-4-4-4--|-----------|

************************************
| x   Dead note
| >   Accented note
| g   Grace note
| b   Bend
| r   Release
| br  Bend release
| /   Slide up
| \   Slide down
| v   Vibrato
************************************



Suggest correction
Give kudos to tab author, rate the tab!
1 2 3 4 5
comments
print report bad tab
guest
You may want to rate the tab now too:
select rating
Wanna post a correction for this tab? Suggest correction