Oops, an error
Loading. Please wait.

Fuck Me Up tab

3,970 views 66 this week
2 commentsread comments
1 2 3 4 5
x 10
add to favorites
×
Save as Personal and add changes to this tab that will be seen only by you. Learn more ›
×
You can save this tab as Personal to edit and correct it or add notes. All changes will be seen only by you. Learn more »
launch autoscroll
font size
0
reset
how to read this tab
guitar tuner
edit
Autoscroll
slow
fast
+/-
esc
set tempo
stop
[Verse]

First Part:
e|---------------------------------------------------------------------------|
B|---------------------------------------------------------------------------|
G|---------------------------------------------------------------------------|
D|---------------------------------------------------------------------------|
A|---------------------------------------------------------------------------|
E|--2-5-5-/8-8-7-7--5-4-4-3-3-2-2--------------------------------------------|

Second Part (Listen for where it starts; it gets notably louder):
e|---------------------------------------------------------------------------|
B|---------------------------------------------------------------------------|
G|---------------------------------------------------------------------------|
D|--4-7-7-/10-10-9-9-7-6-6-5-5-4-4-------------------------------------------|
A|--4-7-7-/10-10-9-9-7-6-6-5-5-4-4-------------------------------------------|
E|--2-5-5-/8--8--7-7-5-4-4-3-3-2-2-------------------------------------------|


[Pre-Chorus] 

("Don't ask me for my name it's not a part of the plan..."):
e|---------------------------------------------------------------------------|
B|---------------------------------------------------------------------------|
G|----------------(These bends are small; listen to the song to get it exact)|
D|--4-7-7-/10-10-9-9-12-12-12-12-12-12b-12b-12b-13b-13b-14b------------------|
A|--4-7-7-/10-10-9-9-12-12-12-12-12-12b-12b-12b-13b-13b-14b------------------|
E|--2-5-5-/8--8--7-7-10-10-10-10-10-10b-10b-10b-11b-11b-12b------------------|


[Chorus]

e|---------------------------------------------------------------------------|
B|---------------------------------------------------------------------------|
G|---------------------------------------------------------------------------|
D|-4--4-4-4--4-4-4--4-4-4--4-4--7-7-7-7-6-6-5-5------------------------------|
A|-4--4-4-4--4-4-4--4-4-4--4-4--7-7-7-7-6-6-5-5------------------------------|
E|-2--0-2-2--0-2-2--0-2-2--2-2--5-5-5-5-4-4-3-3------------------------------|


[Solo] 
(Comes right out of second chorus):

e|---------------------------------------------------------------------------|
B|-4b------------------------------------------------------------------------|
G|-4b-4pr2---2-4-4b-2-----4-2------------------------------------------------|
D|--------4----------4-4-----4-----------------------------------------------|
A|-----------------------------/12-x/11-x/10-x/9-x/8-x/7-x/6-x/5-x/4-x/3-x/2-|
E|---------------------------------------------------------------------------|

e|-/15b-15b-15b-15/----2-2------------------------------------------------------|
B|---------------------5-5b7--(Do this bend back and forth until the next verse)| -I think the second bend is
G|------------------------------------------------------------------------------|     wrong; 2 and 5b7 are
D|---(Bend the 15 as obscenely high as you can)---------------------------------|     passable and so are
A|------------------------------------------------------------------------------|     9 and 12b14
E|------------------------------------------------------------------------------|


[Outro]

e|-2--2-2-------14--14-14----------------------------------------------------|
B|-2--2-2-------14--14-14----------------------------------------------------|
G|-3--3-3-------15--15-15----------------------------------------------------|
D|-4--4-4-X15---16--16-16-X15------------------------------------------------|
A|-4--4-4-------16--16-16----------------------------------------------------|
E|-2--0-2-------14--14-14----------------------------------------------------|

(Dubbed in Fill During the bar chord on 14)
e|--------------------------14-----------------------------------------------|
B|--------------------------17b19-X4-----------------------------------------|
G|-14b-14b-14p2-12----12-14--------------------------------------------------|
D|-----------------14--------------------------------------------------------|
A|---------------------------------------------------------------------------|
E|---------------------------------------------------------------------------|

e|-2--2-2-----5-5-5-5-4-4-3-3-2----------------------------------------------|
B|-2--2-2-----5-5-5-5-4-4-3-3-2----------------------------------------------|
G|-3--3-3-----6-6-6-6-5-5-4-4-3----------------------------------------------|
D|-4--4-4-X3--7-7-7-7-6-6-5-5-4----------------------------------------------|
A|-4--4-4-----7-7-7-7-6-6-5-5-4----------------------------------------------|
E|-2--0-2-----5-5-5-5-4-4-3-3-2----------------------------------------------| 

************************************

| p  Pull-off
| b  Bend
| /  Slide up 

************************************

            
            
Suggest correction
Creating personal tab
Creating personal tab
You can edit any tab online and save it as your Personal.

You can edit, replace or remove any tab part or add personal notes – all changes will be seen only by you.

Personal tabs can be accessed anytime from any device, even offline.
Learn more »
comments
print report bad tab
2 comments total.
+1 reply
branflakes2 10 Aug 24, 2016 06:19 PM

Nice Tab! MCID For life!

0 reply
charizardwierd0 10 Aug 03, 2017 09:08 PM

Bass please?

guest
You may want to rate the tab now too:
select rating
Wanna post a correction for this tab? Suggest correction