Oops, an error
Loading. Please wait.

Little One Tab

version 1
version 1

Whole song

  • Based off of the studio version, basic shapes and ... Show more
  • So far the most complete tab for this song.
9,169 views 546 this week
3 commentsread comments
1 2 3 4 5
x 20
add to favorites
launch autoscroll
font size
0
reset
how to read this tab
guitar tuner
Autoscroll
slow
fast
+/-
esc
set tempo
stop
Author
Difficulty
intermediate
About this tab version
Based off of the studio version, basic shapes and progressions are highlighted. The solo is fairly accurate. Was this info helpful? Yes No
[Verse]
The 16 second mark in the song has a slightly different progression, where after the 
third chord it goes to
the same shape on the sixth fret

E|----------------------------|--------------------------|--|
B|----------------------------|--------------------------|--|
G|----------------------------|--------------------------|--|
D|----------------------------|--------------------------|--|
A|--------2-----2----------7--|--------3--2--3--2--------|--|
E|--3--3--3--3-----3/8--8--8--|--4--4--4--3--------3--0--|--|

[Chorus chords]
E|----------------|
B|----------------|
G|----------------|
D|--5--12--13--8--|
A|--5--12--13--8--|
E|--3--10--11--6--|

[Solo]
E|-------------------------------------------------------------------------------------------------------|
B|-------------------------------------------------------------------------------------------------------|
G|--12--12--12--12--11h12--12--14--12h14--14b15--12--12--12\10/12------12--12--12--11h12--12--14--12h14--|
D|-----------------------------------------------------------------12------------------------------------|
A|-------------------------------------------------------------------------------------------------------|
E|-------------------------------------------------------------------------------------------------------|

[Stave 4]
E|---------------------------------15------15--15------14--15------17--------------------------------|
B|-----------------15------13--12------12----------12----------15------15b16--15--15--15b18--13--12--|
G|--14b15--12--12------12----------------------------------------------------------------------------|
D|---------------------------------------------------------------------------------------------------|
A|---------------------------------------------------------------------------------------------------|
E|---------------------------------------------------------------------------------------------------|

[Stave 5]
E|------------------------------------------------------|
B|------------------------------------------------------|
G|--12--12--12--12h14--12--14--14--14--14b15r14--15b17--|
D|------------------------------------------------------|
A|------------------------------------------------------|
E|------------------------------------------------------|

************************************

| /  Slide up
| h  Hammer-on
| b  Bend
| \  Slide down
| r  Release

************************************
Suggest correction
comments
print report bad tab
3 comments total.
+3 reply
billysteed11 10 Nov 07, 2016 10:23 PM

I think you meant this.
[Chorus chords]
E|----------------|
B|----------------|
G|----------------|
D|--5--12--13--8--|
A|--5--12--13--8--|
E|--3--10--11--6--|

guest
You may want to rate the tab now too:
select rating
Wanna post a correction for this tab? Suggest correction