Oops, an error
Loading. Please wait.

Little One Tab

version 2
version 2

Whole song

  • Based off of the studio version, basic shapes and ... Show more
  • So far the most complete tab for this song.
232 views 42 this week
no commentswrite comment
1 2 3 4 5
1 last vote to show rating
add to favorites
launch autoscroll
font size
0
reset
how to read this tab
guitar tuner
Autoscroll
slow
fast
+/-
esc
set tempo
stop
Help us to improve Ultimate-Guitar.com Take our survey!
×
Author
Difficulty
novice
About this tab version
So far the most complete tab for this song. Was this info helpful? Yes No
[Intro]
e|-----------------------------------------------------------------------------------------------------|
B|-----------------------------------------------------------------------------------------------------|
G|-----------------------------------------------------------------------------------------------------|
D|-5-5-5-5-5-5/10-10-10-10-10\6-6-6-6--5-5-5-5-5-5-5-5-5-5-5-5-5/10-10-10-10-10\6-6-6-6--5-5-5-5-5-5-5-|
A|-5-5-5-5-5-5/10-10-10-10-10\6-6-6-6--5-5-5-5-5-5-5-5-5-5-5-5-5/10-10-10-10-10\6-6-6-6--5-5-5-5-5-5-5-|
E|-3-3-3-3-3-3/8--8--8--8---8\4-4-4-4--3-3-3-3-3-3-3-3-3-3-3-3-3/8--8--8--8--8-\4-4-4-4--3-3-3-3-3-3-3-|

e|----------------------------------------------------------------------------|
B|----------------------------------------------------------------------------|
G|----------------------------------------------------------------------------|
D|-----5-5-5-5-5-5/10-10-10-10-10--6-6-6-6/8-8-8-8----------------------------|
A|-3p2-5-5-5-5-5-5/10-10-10-10-10--6-6-6-6/8-8-8-8-6p5-3p2--------------------|
E|-----3-3-3-3-3-3/8--8--8--8--8---4-4-4-4/6-6-6-6----------------------------|

[Verse]
e|----------------------------------------------------------------------------|
B|----------------------------------------------------------------------------|
G|----------------------------------------------------------------------------|
D|--5-5-5-5-5-5--10-10-10-10-10--6-6-6-6--5-5-5-5-5-5-5-----------------------|
A|--5-5-5-5-5-5--10-10-10-10-10--6-6-6-6--5-5-5-5-5-5-5-3p2-------------------|(4x)
E|--3-3-3-3-3-3--8--8--8--8--8---4-4-4-4--3-3-3-3-3-3-3-----------------------|

[Chorus]
e|---------------------------------------------------------------------------|
B|---------------------------------------------------------------------------|
G|---------------------------------------------------------------------------|
D|-5-5-5-5-5-5-12-12-12-12-13-13-13-8-8-8-8-8-8-8----------------------------|
A|-5-5-5-5-5-5-12-12-12-12-13-13-13-8-8-8-8-8-8-8----------------------------|(2x)
E|-3-3-3-3-3-3-10-10-10-10-11-11-11-6-6-6-6-6-6-6----------------------------|

[Verse]
e|---------------------------------------------------------------------------|
B|---------------------------------------------------------------------------|
G|---------------------------------------------------------------------------|
D|--5-5-5-5-5-5--10-10-10-10-10--6-6-6-6--5-5-5-5-5-5-5----------------------|
A|--5-5-5-5-5-5--10-10-10-10-10--6-6-6-6--5-5-5-5-5-5-5-3p2------------------|(this repeats 3x then fades)
E|--3-3-3-3-3-3--8--8--8--8--8---4-4-4-4--3-3-3-3-3-3-3----------------------|

[Chorus]
e|---------------------------------------------------------------------------|
B|---------------------------------------------------------------------------|
G|---------------------------------------------------------------------------|
D|-5-5-5-5-5-5-12-12-12-12-13-13-13-8-8-8-8-8-8-8----------------------------|
A|-5-5-5-5-5-5-12-12-12-12-13-13-13-8-8-8-8-8-8-8----------------------------|(4x)
E|-3-3-3-3-3-3-10-10-10-10-11-11-11-6-6-6-6-6-6-6----------------------------|

[Solo]
e|-----------------------------------------------------------------------------------------------------------|
B|---------------------------------------------------------------------------------------------------15----13|
G|--12-12-11-12-14-12-14-14b15-14b15-14b15--12-12-10-10----12-12-11-12-14-12-14-14b15-14b15-14b15-12----12---|
D|------------------------------------------------------12---------------------------------------------------|
A|-----------------------------------------------------------------------------------------------------------|
E|-----------------------------------------------------------------------------------------------------------|

e|----15----15----14-15-----------------------------------13---------------------------------|
B|-11----15----15-------15-15-15b16-15b16-15b16--15-15-15---15--13-12------------------------|
G|---------------------------------------------------------------------12-12-14p12-15-15b17--|
D|-------------------------------------------------------------------------------------------|
A|-------------------------------------------------------------------------------------------|
E|-------------------------------------------------------------------------------------------|

e|---------------------------------------------------------------------------|
B|---------------------------------------------------------------------------|
G|---------------------------------------------------------------------------|
D|-5-5-5-5-5-5-12-12-12-12-13-13-13-8-8-8-8-8-8-8----------------------------|
A|-5-5-5-5-5-5-12-12-12-12-13-13-13-8-8-8-8-8-8-8----------------------------|(6x)
E|-3-3-3-3-3-3-10-10-10-10-11-11-11-6-6-6-6-6-6-6----------------------------|

[Outro]
e|---------------------------------------------------------------------------|
B|---------------------------------------------------------------------------|
G|---------------------------------------------------------------------------|
D|--5-5-5-5-5-5/10-10-10-10-10\6-6-6-6--8-8-8-8------------------------------|
A|--5-5-5-5-5-5/10-10-10-10-10\6-6-6-6--8-8-8-8------------------------------|(4x)
E|--3-3-3-3-3-3/8--8--8--8--8-\4-4-4-4--6-6-6-6------------------------------|


************************************


| p   Pull-off
| r   Release
| b   Bend
| /   Slide up
| \   Slide down

************************************
Suggest correction
Give kudos to tab author, rate the tab!
1 2 3 4 5
comments
print report bad tab
guest
You may want to rate the tab now too:
select rating
Wanna post a correction for this tab? Suggest correction