Oops, an error
Loading. Please wait.

Lost Tab

694 views 105 this week
no commentswrite comment
1 2 3 4 5
x 5
add to favorites
launch autoscroll
font size
0
reset
how to read this tab
guitar tuner
Autoscroll
slow
fast
+/-
esc
set tempo
stop
Help us to improve Ultimate-Guitar.com Take our survey!
×
Author
Difficulty
novice
This tab is based on album version. The outro has some small improvisations that were based on live
performances of the song. MCID.

[Intro]
0:01
e|---------------------------------------------------------------------------|
B|---------------------------------------------------------------------------|
G|------------7-----------------9p7---7--------------------------------------|
D|--7h9-9-9-9---9-9-9-7h9-9-9-9-----9----------------------------------------|   x3
A|---------------------------------------------------------------------------|
E|---------------------------------------------------------------------------|

e|---------------------------------------------------------------------------|
B|--10------------=10--------------------------------------------------------|
G|-----7--7-10--------7--7-10------------------------------------------------|
D|------------9--9------------9----------------------------------------------|
A|---------------------------------------------------------------------------|
E|---------------------------------------------------------------------------|

[Verse 1]
Right before Chorus - 0:36
e|---------------------------------------------------------------------------|
B|---7-----------------------------------------------------------------------|
G|---9b-(x10)----------------------------------------------------------------|
D|---------------------------------------------------------------------------|
A|---------------------------------------------------------------------------|
E|---------------------------------------------------------------------------|

[Chorus]
0:37
e|---------------------------------------------------------------------------|
B|---------------------------------------------------------------------------|
G|---------------------------------------------------------------------------|
D|--9------4-------2----------------9------4-------2-------------------------|
A|--9------4-(x8)--2-(x8)-----------9------4-(x8)--2-(x8)--------------------|
E|--7------2-------0----------------7------2-------0-------------------------|

e|---------------------------------------------------------------------------|
B|---------------------------------------------------------------------------|
G|---------------------------------------------------------------------------|
D|-9-9-9-9-9-9-9-9-4-4-4-4-2-2-2-2--9-9-9-9-9-9-9-9-4-4-4-4-2-2-2-2----------|
A|-9-9-9-9-9-9-9-9-4-4-4-4-2-2-2-2--9-9-9-9-9-9-9-9-4-4-4-4-2-2-2-2----------|
E|-7-7-7-7-7-7-7-7-2-2-2-2-0-0-0-0--7-7-7-7-7-7-7-7-2-2-2-2-0-0-0-0----------|

[Riff]
1:01
e|---------------------------------------------------------------------------|
B|---------------------------------------------------------------------------|
G|------------7-----------------9p7---7--------------------------------------|
D|--7h9-9-9-9---9-9-9-7h9-9-9-9-----9----------------------------------------|   x3
A|---------------------------------------------------------------------------|
E|---------------------------------------------------------------------------|

e|---------------------------------------------------------------------------|
B|--10------------=10--------------------------------------------------------|
G|-----7--7-10--------7--7-10------------------------------------------------|
D|------------9--9------------9----------------------------------------------|
A|---------------------------------------------------------------------------|
E|---------------------------------------------------------------------------|

[Verse 2]
Right before Chorus - 1:36
e|---------------------------------------------------------------------------|
B|---7-----------------------------------------------------------------------|
G|---9b-(x10)----------------------------------------------------------------|
D|---------------------------------------------------------------------------|
A|---------------------------------------------------------------------------|
E|---------------------------------------------------------------------------|

[Chorus]
1:38
e|---------------------------------------------------------------------------|
B|---------------------------------------------------------------------------|
G|---------------------------------------------------------------------------|
D|--9------4-------2----------------9------4-------2-------------------------|
A|--9------4-(x8)--2-(x8)-----------9------4-(x8)--2-(x8)--------------------|
E|--7------2-------0----------------7------2-------0-------------------------|

e|---------------------------------------------------------------------------|
B|---------------------------------------------------------------------------|
G|---------------------------------------------------------------------------|
D|-9-9-9-9-9-9-9-9-4-4-4-4-2-2-2-2--9-9-9-9-9-9-9-9-4-4-4-4-2-2-2-2----------|
A|-9-9-9-9-9-9-9-9-4-4-4-4-2-2-2-2--9-9-9-9-9-9-9-9-4-4-4-4-2-2-2-2----------|
E|-7-7-7-7-7-7-7-7-2-2-2-2-0-0-0-0--7-7-7-7-7-7-7-7-2-2-2-2-0-0-0-0----------|

[Riff]
2:02
e|---------------------------------------------------------------------------|
B|---------------------------------------------------------------------------|
G|------------7-----------------9p7---7--------------------------------------|
D|--7h9-9-9-9---9-9-9-7h9-9-9-9-----9----------------------------------------| 
A|---------------------------------------------------------------------------|
E|---------------------------------------------------------------------------|

e|---------------------------------------------------------------------------|
B|---------------------------------------------------------------------------|
G|------------7-----------------9p7-7\---------------------------------------|
D|--7h9-9-9-9---9-9-9-7h9-9-9-9----------------------------------------------| 
A|---------------------------------------------------------------------------|
E|---------------------------------------------------------------------------|

e|---------------------------------------------------------------------------|
B|---------------------------------------------------------------------------|
G|------------7-----------------9p7---7--------------------------------------|
D|--7h9-9-9-9---9-9-9-7h9-9-9-9-----9----------------------------------------| 
A|---------------------------------------------------------------------------|
E|---------------------------------------------------------------------------|

e|---------------------------------------------------------------------------|
B|--10------------=10--------------------------------------------------------|
G|-----7--7-10--------7-7--9-7-6---------------------------------------------|
D|------------9--9---------9-7-6---------------------------------------------|
A|-------------------------7-5-4------------------------------=--------------|
E|---------------------------------------------------------------------------|

[Bridge]
2:14
e|---------------------------------------------------------------------------|
B|--*let notes ring*---------------------------------------------------------|
G|---------------------------------------------------------------------------|
D|--5---5---5---5---9---9---7---7--------------------------------------------|   x4
A|--5---5---5---5---9---9---7---7--------------------------------------------|
E|--3---3---3---3---7---7---5---5--------------------------------------------|

2:39
e|--12---------10---------9--------------------------------------------------|
B|--x--(x24)---x--(x12)---x--(x12)------------------=------------------------|
G|--12---------11---------9--------------------------------------------------|
D|---------------------------------------------------------------------------|   x3
A|---------------------------------------------------------------------------|
E|---------------------------------------------------------------------------|

e|--12---------10---------10-------------------------------------------------|
B|--x--(x24)---x--(x18)---x--------------------------=-----------------------|
G|--12---------11---------11-------------------------------------------------|
D|---------------------------------------------------------------------------|   
A|---------------------------------------------------------------------------|
E|---------------------------------------------------------------------------|

[Riff]
3:04
e|---------------------------------------------------------------------------|
B|---------------------------------------------------------------------------|
G|------------7-----------------9p7---7--------------------------------------|
D|--7h9-9-9-9---9-9-9-7h9-9-9-9-----9----------------------------------------| 
A|---------------------------------------------------------------------------|
E|---------------------------------------------------------------------------|

e|---------------------------------------------------------------------------|
B|---------------------------------------------------------------------------|
G|------------7-----------------9p7-7\---------------------------------------|
D|--7h9-9-9-9---9-9-9-7h9-9-9-9----------------------------------------------| 
A|---------------------------------------------------------------------------|
E|---------------------------------------------------------------------------|

e|---------------------------------------------------------------------------|
B|---------------------------------------------------------------------------|
G|------------7-----------------9p7---7--------------------------------------|
D|--7h9-9-9-9---9-9-9-7h9-9-9-9-----9----------------------------------------| 
A|---------------------------------------------------------------------------|
E|---------------------------------------------------------------------------|

e|---------------------------------------------------------------------------|
B|--10------------=10--------------------------------------------------------|
G|-----7--7-10--------7--7-10------------------------------------------------|
D|------------9--9------------9----------------------------------------------|
A|---------------------------------------------------------------------------|
E|---------------------------------------------------------------------------|

3:16
Slow tremolo: 
e|---------------------------------------------------------------------------|
B|---------------------------------------------------------------------------|
G|--4(x12)--6(x12)--7(x12)--3(x6)--4(x3)-3(x3)-------------------------------|
D|---------------------------------------------------------------------------|   x2
A|---------------------------------------------------------------------------|
E|---------------------------------------------------------------------------|

e|---------------------------------------------------------------------------|
B|--3--------5--------7--------8--------10--------12-------12----------------|
G|--4(x12)---6(x12)---7(x12)---9(x12)---11(x12)---12(x12)--12b(x12)----------|
D|---------------------------------------------------------------------------|
A|---------------------------------------------------------------------------|
E|---------------------------------------------------------------------------|

3:40
e|--17-17-17--19-19-19--20-20-20--16-16-16--17-17-17--19-19-19--20-20-20--16-16-16--|
B|----------------------------------------------------------------------------------|
G|----------------------------------------------------------------------------------|
D|----------------------------------------------------------------------------------|
A|----------------------------------------------------------------------------------|
E|----------------------------------------------------------------------------------|

e|--21p19-21p19-19--21-21--22-22--24-24--------------------------------------|
B|---------------------------------------------------------------------------|
G|---------------------------------------------------------------------------|
D|---------------------------------------------------------------------------|
A|---------------------------------------------------------------------------|
E|---------------------------------------------------------------------------|

e|-----------------------------|
B|--21tr-20tr-21tr-22tr-(x2)---|
G|-----------------------------|
D|-----------------------------|
A|-----------------------------|
E|-----------------------------|

Raised 1 octave w/ Whammy pedal:
e|---------------------------------------------------------------------------|
B|--21tr-20tr-21tr-22tr-(x2)-------------------------------------------------|
G|---------------------------------------------------------------------------|
D|----------------------------9\---------------------------------------------|
A|----------------------------9\---------------------------------------------|
E|----------------------------7\---------------------------------------------|

************************************

| x   Dead note
| h   Hammer-on
| p   Pull-off
| b   Bend
| tr  Tremolo
| \   Slide down

************************************
Suggest correction
comments
print report bad tab
guest
You may want to rate the tab now too:
select rating
Wanna post a correction for this tab? Suggest correction