Oops, an error
Loading. Please wait.

Mister Asylum tab

1,120 views 75 this week
3 commentsread comments
1 2 3 4 5
1 last vote to show rating
add to favorites
×
Save as Personal and add changes to this tab that will be seen only by you. Learn more ›
×
You can save this tab as Personal to edit and correct it or add notes. All changes will be seen only by you. Learn more »
launch autoscroll
font size
0
reset
how to read this tab
guitar tuner
edit
Autoscroll
slow
fast
+/-
esc
set tempo
stop
[Intro]
(Tapping)
B |---------------------------|
F#|---------------------------|
D |---------------------------| (x2)
A |-15t8----------------------|
E |----------13t10------------|
A |-------------------12t0----|

[Chorus]
B|-------------------------------|-----------------------------|-----------------------|
B|-------------------------------|-----------------------------|-----------------------|
D|-------------------------------|-----------------------------|-----------------------|
A|-------------------------------|-----------------------------|-----------------------|(x2)
E|-------------------------------|-----------------------------|--------------5--------|
A|-0---12-10-12-0---0-12-10-12-10|-0--0--7--8--8-8--8--10--8--5|--5-5-0--5h6h7--7------|

B |--17N-|-15N-|-13N-|-12N-10N-|
F#|--18N-|-17N-|-15N-|-13N-12N-|
D |------|-----|-----|---------|(x2)
A |------|-----|-----|---------|
E |------|-----|-----|---------|
A |------|-----|-----|---------|

B |------------------------|-------------------------|
F#|------------------------|-------------------------|
D |------------------------|-------------------------|
A |------------------------|-------------------------|
E |------------------------|-------------------------|
A |-5h6h7-5h6h7-5h6h7-5h6h7|-5h6h7-5h6h7-3-3--0------|

[Verse]
B |-----17--17-15-15--15|--15~--13~--|-------------|
F#|---------------------|------------|-------------|
D |-/17---17---16---16--|--15~--14~--|-------------|
A |---------------------|------------|-------------|(x3)
E |---------------------|------------|-------------|
A |---------------------|------------|--3-3-3-0----|

B |-----17--17-15-15--15|--15~--13~---|
F#|---------------------|-------------|
D |-/17---17---16---16--|--15~--14~---|
A |---------------------|-------------|
E |---------------------|-------------|
A |---------------------|-------------|

[Chorus]
B|-------------------------------|-----------------------------|-----------------------|
B|-------------------------------|-----------------------------|-----------------------|
D|-------------------------------|-----------------------------|-----------------------|
A|-------------------------------|-----------------------------|-----------------------|(x2)
E|-------------------------------|-----------------------------|--------------5--------|
A|-0---12-10-12-0---0-12-10-12-10|-0--0--7--8--8-8--8--10--8--5|--5-5-0--5h6h7--7------|

B |--17N-|-15N-|-13N-|-12N-10N-|
F#|--18N-|-17N-|-15N-|-13N-12N-|
D |------|-----|-----|---------|(x2)
A |------|-----|-----|---------|
E |------|-----|-----|---------|
A |------|-----|-----|---------|

B |------------------------|-------------------------|
F#|------------------------|-------------------------|
D |------------------------|-------------------------|
A |------------------------|-------------------------|
E |------------------------|-------------------------|
A |-5h6h7-5h6h7-5h6h7-5h6h7|-5h6h7-5h6h7-3-3--0------|

[Verse]
B |-----17--17-15-15--15|--15~--13~--|-------------|
F#|---------------------|------------|-------------|
D |-/17---17---16---16--|--15~--14~--|-------------|
A |---------------------|------------|-------------|(x3)
E |---------------------|------------|-------------|
A |---------------------|------------|--3-3-3-0----|

B |-----17--17-15-15--15|--15~--13~---|
F#|---------------------|-------------|
D |-/17---17---16---16--|--15~--14~---|
A |---------------------|-------------|
E |---------------------|-------------|
A |---------------------|-------------|

[Bridge]
B |-----------|-----------|----------|------------|
F#|-----------|-----------|----------|------------|
D |-----------|-----------|----------|------------|
A |-----------|-----------|----------|------------|
E |-----------|-----------|----------|------------|
A |-0~--------|-2~--------|-3~-------|-5~----2~---|

B |-----------|-----------|----------|-------------------------|
F#|-----------|-----------|----------|-------------------------|
D |-----------|-----------|----------|-------------------------|
A |-----------|-----------|----------|-------------------------|
E |-----------|-----------|----------|-------------------------|
A |-0~--------|-2~--------|-3~-------|-5~----7~----8~----10~---|

[Chorus]
B|-------------------------------|-----------------------------|-----------------------|
B|-------------------------------|-----------------------------|-----------------------|
D|-------------------------------|-----------------------------|-----------------------|
A|-------------------------------|-----------------------------|-----------------------|(x2)
E|-------------------------------|-----------------------------|--------------5--------|
A|-0---12-10-12-0---0-12-10-12-10|-0--0--7--8--8-8--8--10--8--5|--5-5-0--5h6h7--7------|

B |--17N-|-15N-|-13N-|-12N-10N-|
F#|--18N-|-17N-|-15N-|-13N-12N-|
D |------|-----|-----|---------|(x4)
A |------|-----|-----|---------|
E |------|-----|-----|---------|
A |------|-----|-----|---------|

B |------------------------|-------------------------|
F#|------------------------|-------------------------|
D |------------------------|-------------------------|
A |------------------------|-------------------------|
E |------------------------|-------------------------|
A |-5h6h7-5h6h7-5h6h7-5h6h7|-5h6h7-5h6h7-3-3--0------|


************************************

| h   Hammer-on
| t   Tapping
| /   Slide up
| ~   Vibrato
| N   Tremolo

************************************

            
            
Suggest correction
Creating personal tab
Creating personal tab
You can edit any tab online and save it as your Personal.

You can edit, replace or remove any tab part or add personal notes – all changes will be seen only by you.

Personal tabs can be accessed anytime from any device, even offline.
Learn more »
Give kudos to tab author, rate the tab!
1 2 3 4 5
comments
print report bad tab
3 comments total.
0 reply
ChristosA7X 20 Aug 24, 2017 11:04 AM

5 Stars from me. If this isn't perfect, you are damn close.

0 reply
rossgreen9731 71 Aug 25, 2017 10:05 AM

Thanks man!

0 reply
ChristosA7X 20 Sep 25, 2017 10:54 AM

<33 My band preformed this and we killed it thanks to this tab.

guest
You may want to rate the tab now too:
select rating
Wanna post a correction for this tab? Suggest correction