Oops, an error
Loading. Please wait.

Mom Bass Tab

version 1
version 1

Whole song

Interactive

34 views 18 this week
no commentswrite comment
1 2 3 4 5
3 more votes to show rating
add to favorites
launch autoscroll
font size
0
reset
guitar tuner
Autoscroll
slow
fast
+/-
esc
set tempo
stop
Help us to improve Ultimate-Guitar.com Take our survey!
×
Author
Difficulty
novice
[Intro] 0:19

G|---------------------------------------------------------------------------|
D|---------------------------------------------------------------------------|
A|---------------------------------------------------------------------------|
E|--0--0--3b--0----3b--0--0--3b--2---2---------------------------------------| x4

[Verse] 0:37

G|---------------------------------------------------------------------------|
D|---------------------------------------------------------------------------|
A|---------------------------------------------------------------------------|
E|--0---0-----3---3-----2---2------------------------------------------------| x4

[Chorus] 0:55

G|---------------------------------------------------------------------------|
D|----10--10--9---9---7---7---5---5---4---4---4---4--------------------------|
A|---------------------------------------------------------------------------|
E|--8---8---7---7---5---5---3---3---2---2---2---2-----7---8---5---3----------|

G|---------------------------------------------------------------------------|
D|----10--10--9---9---7---7---5---5---4---4---4---4--------------------------|
A|---------------------------------------------------------------------------|
E|--8---8---7---7---5---5---3---3---2---2---2---2-----7---8---10---11--------|

[Verse] 1:12

G|---------------------------------------------------------------------------|
D|---------------------------------------------------------------------------|
A|---------------------------------------------------------------------------|
E|--0--0--3b--0----3b--0--0--3b--2------2------------------------------------| x4

G|---------------------------------------------------------------------------|
D|---------------------------------------------------------------------------|
A|---------------------------------------------------------------------------|
E|--0---0-----3---3-----2---2------------------------------------------------| x4

[Chorus] 1:49

G|---------------------------------------------------------------------------|
D|----10--10--9---9---7---7---5---5------------------------------------------|
A|---------------------------------------------------------------------------|
E|--8---8---7---7---5---5---3---3--------------------------------------------| x2

G|---------------------------------------------------------------------------|
D|----10--10--9---9---7---7---5---5---4---4---4---4--------------------------|
A|---------------------------------------------------------------------------|
E|--8---8---7---7---5---5---3---3---2---2---2---2-----7---8---10---11--------|

[Breakdown] 2:07

G|---------------------------------------------------------------------------|
D|---------------------11--11--11--11--10--7---12---9------------------------|
A|---------------------------------------------------------------------------|
E|--0---0---0---0---/9---9---9---9---8---5---10---7--------------------------| x2

G|---------------------------------------------------------------------------|
D|---------------------11--11--11--11--10--7---12---9------------------------|
A|---------------------------------------------------------------------------|
E|--0---0-----------/9---9---9---9---8---5---10---7--------------------------|

G|---------------------------------------------------------------------------|
D|---------------------11--11--11--11--10--7---12---9------------------------|
A|---------------------------------------------------------------------------|
E|--0---0---0---0---/9---9---9---9---8---5---10---7--------------------------|

[Bridge] 2:41

G|---------------------------------------------------------------------------|
D|---------------------------------------------------------------------------|
A|---------------------------------------------------------------------------|
E|--5--5-----3--3-----8--8-----8--8---8-8--7---------------------------------|

G|---------------------------------------------------------------------------|
D|---------------------------------------------------------------------------|
A|---------------------------------------------------------------------------|
E|--5--5-----3--3-----8--8-----8--8---8-8--8---------------------------------|

G|---------------------------------------------------------------------------|
D|---------------------------------------------------------------------------|
A|---------------------------------------------------------------------------|
E|--5--5-----3--3-----8--8-----8--8-----7--7-----7--7-----7-7-7-7-7-7-7-7----|

[Breakdown] 3:16

G|---------------------------------------------------------------------------|
D|---------------------11--11--11--11--10--7---12---9------------------------|
A|---------------------------------------------------------------------------|
E|--0---0---0---0---/9---9---9---9---8---5---10---7--------------------------| x2

G|---------------------------------------------------------------------------|
D|---------------------11--11--11--11--10--7---12---9------------------------|
A|---------------------------------------------------------------------------|
E|--0---0-----------/9---9---9---9---8---5---10---7--------------------------|

G|---------------------------------------------------------------------------|
D|---------------------11--11--11--11--10--7---12---9------------------------|
A|---------------------------------------------------------------------------|
E|--0---0---0---0---/9---9---9---9---8---5---10---7--------------------------|

[Solo] 3:50

G|---------------------------------------------------------------------------|
D|---------------------------------------------------------------------------|
A|---------------------------------------------------------------------------|
E|--0--0----------------------0--0-------------------------------------------|

G|---------------------------------------------------------------------------|
D|---------------------------------------------------------------------------|
A|---------------------------------------------------/7-7-7-7-5--------------|
E|--0--0----------------------0--0------------------------------7-3/5-5------| 

G|---------------------------------------------------------------------------|
D|---------------------------------------------------------------------------|
A|---------------------------------------------------------------------------|
E|--0--0----------------------0--0-------------------------------------------|

G|---------------------------------------------------------------------------|
D|---------------------------------------------------------------------------|
A|--------------------------------------------------------------5/7----------|
E|--0--0----------------------0--0-----------------------------------2/3-----|

G|---------------------------------------------------------------------------|
D|---------------------------------------------------------------------------|
A|---------------------------------------------------------------------------|
E|--0--0----------------------0--0-------------------------------------------|

G|---------------------------------------------------------------------------|
D|-----------------------------------------------------------------5---------|
A|---------------------------------------------------------5/7-5h7---7-5-----|
E|--0--0----------------------0--0-------------------------------------------|

G|---------------------------------------------------------------------------|
D|------------------------------------------------------------------0h2--2---|
A|---------------------------------------------------------------------------|
E|--0--0----------------------0--0----------------------0-2--0-3--0----------|

G|---------------------------------------------------------------------------|
D|---------------------------------------------------------------------------|
A|-------------------------------------------------------7-5-----------------|
E|--0--0----------------------0--0---------------------------7-5-7-5-3-------|

G|---------------------------------------------------------------------------|
D|---------------------------------------------------------------------------|
A|----------------------------------------------------------5h7-5h7----------|
E|--0--0----------------------0--0----------------------------------3--------|

G|---------------------------------------------------------------------------|
D|---------------------------------------------------------------------------|
A|----------------------------------------------------------5/7--------------|
E|--0--0----------------------0--0------------------------------3-5h7-7------|

G|---------------------------------------------------------------------------|
D|---------------------------------------------------------------------------|
A|----------------------------------------------------------7-5--------------|
E|--0--0----------------------0--0------------------------------0-3\0--------| x2

G|---------------------------------------------------------------------------|
D|---------------------------------------------------------------------------|
A|----------------------------------------------------------7-5-7-5----------|
E|--0--0----------------------0--0----------------------------------3\0------|

G|---------------------------------------------------------------------------|
D|---------------------------------------------------------------------------|
A|----------------------------5h7-7-7----------------------------------------|
E|--0--0------------------------------0--------------------------------------|

************************************

| h   Hammer-on
| p   Pull-off
| b   Bend
| /   Slide up
| \   Slide down

************************************
Suggest correction
Give kudos to tab author, rate the tab!
1 2 3 4 5
comments
print report bad tab
guest
You may want to rate the tab now too:
select rating
Wanna post a correction for this tab? Suggest correction