Oops, an error
Loading. Please wait.

Mom tab

version 1
version 1

Whole song

Interactive

7,600 views 57 this week
1 commentread comment
1 2 3 4 5
x 11
add to favorites
×
Save as Personal and add changes to this tab that will be seen only by you. Learn more ›
×
You can save this tab as Personal to edit and correct it or add notes. All changes will be seen only by you. Learn more »
launch autoscroll
font size
0
reset
how to read this tab
guitar tuner
edit
Autoscroll
slow
fast
+/-
esc
set tempo
stop
Author
Difficulty
Mom
Highly Suspect   
                                     
Tuning:EBGDAE
Tempo: Approx 108BPM (Studio version seems to fluctuate throughout song)
Triplet 8th Feel


      E  E  E   E  E  E  E   E     E  E  E   E  E  E  E  E   4x 
e||-----------------------------|-----------------------------||
B||-----------------------------|-----------------------------||
G||*----------------------------|---------------------------*-||
D||*-----2------2-----2------2--|-----2------2-----1-----1--*-||
A||-----------------------------|-----------------------------||
E||---0-----3b-----0-----3b-----|--0-----3b-----2-----2-------||
 
 
    E  E  E   E  E   E   Q         E  E  E   E  E  E  E   E   
e|-----------------------9----||-----------------------------|
B|----------------------12----||-----------------------------|
G|---------------6s--7--------||*----------------------------|
D|-----2------2---------------||*-----2------2-----2------2--|
A|----------------------------||-----------------------------|
E|--0-----3b------------------||---0-----3b-----0-----3b-----|
 
 
    E  E  E   E  E  E  E  E   4x    E  E  H.            
e|-----------------------------||----------------------|
B|-----------------------------||----------------------|
G|---------------------------*-||*---------------------|
D|-----2------2-----1-----1--*-||*--2--2---------------|
A|-----------------------------||----------------------|
E|--0-----3b-----2-----2-------||---0--0---------------|
 
 
    E  E  Q    E  E  Q     4x     E  E  E  E  E  E  E  E   
e|--------------------------||----------------------------|
B|--------------------------||----------------------------|
G|------------------------*-||*---------------------------|
D|--2--2-------1--1-------*-||*------7-----7-----5-----5--|
A|--------------------------||----------------------------|
E|--3--3-------2--2---------||---/8-----8-----7-----7-----|
 
 
    E  E  E  E  E  E  E  E     E  E  E  E  E  E  E  E   
e|--------------------------|--------------------------|
B|--------------------------|--------------------------|
G|--------------------------|--------------------------|
D|-----4-----4-----2-----2--|-----1-----1-----1-----1--|
A|--------------------------|--------------------------|
E|--5-----5-----3-----3-----|--2-----2-----2-----2-----|
 
 
     Q     Q    Q    Q           Q     Q     Q     Q     
e|--------------------------||--------------------------|
B|--------------------------||--------------------------|
G|------------------------*-||--------------------------|
D|--/9----10----7----5----*-||--/9----10----12----13----|
A|--/9----10----7----5------||--/9----10----12----13----|
E|--/7-----8----5----3------||--/7-----8----10----11----|
 
 
      E  E  E   E  E  E  E   E     E  E  E   E  E  E  E  E   3x 
e||-----------------------------|-----------------------------||
B||-----------------------------|-----------------------------||
G||*----------------------------|---------------------------*-||
D||*-----2------2-----2------2--|-----2------2-----1-----1--*-||
A||-----------------------------|-----------------------------||
E||---0-----3b-----0-----3b-----|--0-----3b-----2-----2-------||
 
 
     E   E   E    E   E   E   E   E      E   E   E    E   E   E   E   E   
e|-----------------------------------|-----------------------------------|
B|-----------------------------------|-----------------------------------|
G|-----------------------------------|-----------------------------------|
D|--14--14--14---14--14--14--14--14--|--14--14--14---14--13--13--13--13--|
A|-----------------------------------|-----------------------------------|
E|--12--12--10S--12--12--12--10--12--|--12--12--10S--12--11--11--11--11--|
 
 
      E  E  H.              E  E  Q    E  E  Q     4x 
e||----------------------|--------------------------||
B||----------------------|--------------------------||
G||*---------------------|------------------------*-||
D||*--2--2---------------|--2--2-------1--1-------*-||
A||----------------------|--------------------------||
E||---0--0---------------|--3--3-------2--2---------||
 
 
      E  E  E  E  E  E  E  E     E  E  E  E  E  E  E  E   3x 
e|----------------------------|----------------------------||
B|----------------------------|----------------------------||
G|*---------------------------|--------------------------*-||
D|*------7-----7-----5-----5--|-----4-----4-----2-----2--*-||
A|----------------------------|----------------------------||
E|---/8-----8-----7-----7-----|--5-----5-----3-----3-------||
 
 
    E  E  E  E  E  E  E  E      Q     Q     Q     Q     
e|--------------------------|--------------------------|
B|--------------------------|--------------------------|
G|--------------------------|--------------------------|
D|-----1-----1-----1-----1--|--/9----10----12----13----|
A|--------------------------|--/9----10----12----13----|
E|--2-----2-----2-----2-----|--/7-----8----10----11----|
 
 
     Q     Q     Q     Q        Q     Q     Q     E     E   
e|---------------------------|-----------------------------|
B|--------12----------12-----|-------12----------12--------|
G|*-------14b---------14b----|-------14b---------14br--12--|
D|*--2-----------2-----------|--2-----------2--------------|
A|---2-----------2-----------|--2-----------2--------------|
E|---0-----------0-----------|--0-----------0--------------|
 
 
     E   E   E   E   E   E   E   E      Q     Q     Q     Q         
e|----------------------------------|-----------------------------||
B|----------------------------------|-----------------------------||
G|----------------------------------|---------------------------*-||
D|--11--11--11--11--11--11--11--11--|--10S----7----12S----9\----*-||
A|--11--11--11--11--11--11--11--11--|--10S----7----12S----9\------||
E|---9---9---9---9---9---9---9---9--|---8S----5----10S----7\------||
 
 
    Q     Q     Q     E    E   
e|------------------------12--|
B|-------12---------------12--|
G|-------14b---------14b------|
D|--2-----------2-------------|
A|--2-----------2-------------|
E|--0-----------0-------------|
 
 
     |----3---|   |---3---|   |----3----|   |---3--|   
     E    E   E   E   E   E   E     E   E   Q      E   
e|-----------12---------------------------------------|
B|-------12------15--12-------------------------------|
G|--14b------------------14--14br--12------12b--------|
D|-------------------------------------14---------14--|
A|----------------------------------------------------|
E|----------------------------------------------------|
 
 
      E   E   E   E   E   E   E   E      Q     Q     Q     Q      
e|-----------------------------------|---------------------------|
B|-----------------------------------|---------------------------|
G|*----------------------------------|---------------------------|
D|*--11--11--11--11--11--11--11--11--|--10S----7----12S----9\----|
A|---11--11--11--11--11--11--11--11--|--10S----7----12S----9\----|
E|----9---9---9---9---9---9---9---9--|---8S----5----10S----7\----|
 
 
    Q     Q     Q     Q        Q     Q     Q     E     E      
e|--------------------------|-------------------------------||
B|-------12----------12-----|-------12----------12----------||
G|-------14b---------14b----|-------14b---------14br--12--*-||
D|--2-----------2-----------|--2-----------2--------------*-||
A|--2-----------2-----------|--2-----------2----------------||
E|--0-----------0-----------|--0-----------0----------------||
 
 
    E  Q.     H           E  Q.     H            E   Q.      H         
e|---------------------|---------------------|------------------------|
B|---------------------|---------------------|------------------------|
G|---------------------|---------------------|------------------------|
D|--7--7------7--------|--5--5------5--------|--10--10------10--------|
A|--7--7------7--------|--5--5------5--------|--10--10------10--------|
E|--5--5------5--------|--3--3------3--------|---8---8-------8--------|
 
 
   E   Q.      H           E  Q.     H           E  Q.     H         
e|------------------------|---------------------|---------------------|
B|------------------------|---------------------|---------------------|
G|------------------------|---------------------|---------------------|
D|--10--10------10--------|--7--7------7--------|--5--5------5--------|
A|--10--10------10--------|--7--7------7--------|--5--5------5--------|
E|---8---8-------8--------|--5--5------5--------|--3--3------3--------|
 
 
     E   Q.      H            Q     Q     Q     E   E     E  Q.     H         
e|------------------------|----------------------------|---------------------|
B|------------------------|----------------------------|---------------------|
G|------------------------|----------------------------|---------------------|
D|--10--10------10--------|--10----10----10----10--10--|--7--7------7--------|
A|--10--10------10--------|--10----10----10----10--10--|--7--7------7--------|
E|---8---8-------8--------|---8-----8-----8-----8---8--|--5--5------5--------|
 
 
    E  Q.     H            E   Q.      H            E   Q.      H         
e|---------------------|------------------------|------------------------|
B|---------------------|------------------------|------------------------|
G|---------------------|------------------------|------------------------|
D|--5--5------5--------|--10--10------10--------|--10--10------10--------|
A|--5--5------5--------|--10--10------10--------|--10--10------10--------|
E|--3--3------3--------|---8---8-------8--------|---8---8-------8--------|
 
 
    E  Q.     H           E  Q.     H           E  Q.     Q    S S S S  
e|---------------------|---------------------|-------------------------|
B|---------------------|---------------------|-------------------------|
G|---------------------|---------------------|--8--8------8----8-8-8-8-|
D|--9--9------9--------|--9--9------9--------|--9--9------9----9-9-9-9-|
A|--9--9------9--------|--9--9------9--------|--9--9------9----9-9-9-9-|
E|--7--7------7--------|--7--7------7--------|--7--7------7----7-7-7-7-|
 
 
   S S S S S S S S S S S S S S S S      Q     Q     Q     Q      
e|----------------------------------||---------------------------|
B|----------------------------------||--------12----------12-----|
G|--8-8-8-8-8-8-8-8-8-8-8-8-8-8-8-8-||*-------14b---------14b----|
D|--9-9-9-9-9-9-9-9-9-9-9-9-9-9-9-9-||*--2-----------2-----------|
A|--9-9-9-9-9-9-9-9-9-9-9-9-9-9-9-9-||---2-----------2-----------|
E|--7-7-7-7-7-7-7-7-7-7-7-7-7-7-7-7-||---0-----------0-----------|
 
 
    Q     Q     Q     E     E      E   E   E   E   E   E   E   E   
e|-----------------------------|----------------------------------|
B|-------12----------12--------|----------------------------------|
G|-------14b---------14br--12--|----------------------------------|
D|--2-----------2--------------|--11--11--11--11--11--11--11--11--|
A|--2-----------2--------------|--11--11--11--11--11--11--11--11--|
E|--0-----------0--------------|---9---9---9---9---9---9---9---9--|
 
 
     Q     Q     Q     Q           Q     Q     Q     E    E   
e|-----------------------------||------------------------12--|
B|-----------------------------||-------12----------12---12--|
G|---------------------------*-||-------14b---------14b------|
D|--10S----7----12S----9\----*-||--2-----------2-------------|
A|--10S----7----12S----9\------||--2-----------2-------------|
E|---8S----5----10S----7\------||--0-----------0-------------|
 
 
     |----3---|   |---3---|   |----3---|   |---3---|   
     E    E   E   E   E   E   E    E   E   E   E   E   
e|-----------12--------------15b--15--12--------------|
B|-------12------15--12-------------------15--12------|
G|--14b------------------12-----------------------14--|
D|----------------------------------------------------|
A|----------------------------------------------------|
E|----------------------------------------------------|
 
  
     E   E   E   E   E   E   E   E      Q     Q     Q     Q      
e|----------------------------------|---------------------------|
B|----------------------------------|---------------------------|
G|----------------------------------|---------------------------|
D|--11--11--11--11--11--11--11--11--|--10S----7----12S----9\----|
A|--11--11--11--11--11--11--11--11--|--10S----7----12S----9\----|
E|---9---9---9---9---9---9---9---9--|---8S----5----10S----7\----|
 
 
    Q     Q     Q     Q        Q     Q     Q     Q      
e|--------------------------|--------------------------|
B|-------12----------12-----|-------12----------12-----|
G|-------14b---------14b----|-------14b---------14b----|
D|--2-----------2-----------|--2-----------2-----------|
A|--2-----------2-----------|--2-----------2-----------|
E|--0-----------0-----------|--0-----------0-----------|
 
 
     E   E   E   E   E   E   E   E      Q     Q     Q     Q      
e|----------------------------------|---------------------------|
B|----------------------------------|---------------------------|
G|----------------------------------|---------------------------|
D|--11--11--11--11--11--11--11--11--|--10S----7----12S----9\----|
A|--11--11--11--11--11--11--11--11--|--10S----7----12S----9\----|
E|---9---9---9---9---9---9---9---9--|---8S----5----10S----7\----|
 
 
                                                                    W      
     E   E   E   E   E   E   E   E      E   E   E   E   E   E   E   E   6x 
e|----------------------------------|------------------------------------||
B|------14--12------14--12------14--|--12------14--12------14------------||
G|*-----14--12------14--12------14--|--12------14--12------14--12---L--*-||
D|*--2----------14----------14------|------14----------14--------------*-||
A|---2------------------------------|------------------------------------||
E|---0------------------------------|------------------------------------||
 
 
                                                                   W   
    E   E   E   E   E   E   E   E      E   E   E   E   E   E   E   E   
e|---------------------------------|----------------------------------|
B|-----14--12------14--12------14--|--12------14--12------14----------|
G|-----14--12------14--12------14--|--12------14--12------14--12---L--|
D|--2----------14----------14------|------14----------14--------------|
A|--2------------------------------|----------------------------------|
E|--0------------------------------|----------------------------------|
 
 
     |---3---|   |---3---|   |---3---|   |---3---|      
     E   E   E   E   E   E   E   E   E   E   E   E         
e|--------------------------------------------------|-----|
B|--------------------------------------------------|-----|
G|--------------------------------------------------|-----|
D|------12------12------12------11------11------11--|-----|
A|--14------14------14------12------12------12------|-----|
E|--------------------------------------------------|-----|
 
 
     H           E   Q.         E   E   E   Q.      E    E     
e|--17br--------15----------|---------------------------------|
B|------------------17------|------17--17--17------17b--17br--|
G|--------------------------|--19-----------------------------|
D|--------------------------|--19-----------------------------|
A|--------------------------|---------------------------------|
E|--------------------------|---------------------------------|
 
 
                             |----3---|      |---3---|   |---3---|             
     E   E   E   E   E   E   E    E   E      E   E   E   E   E   E   H         
e|-----------------------------------12--|------------------------------------|
B|---L---------------------------12------|--15------15------15------14--------|
G|------12--12--14--14--12--14b----------|------12------12------12------------|
D|---------------------------------------|------------------------------------|
A|---------------------------------------|------------------------------------|
E|---------------------------------------|------------------------------------|
 
 
     tr           tr               tr           tr            
     H            H                H            H             
e|-----------------------------|-----------------------------|
B|--15(8)--------27(20)--------|--14(7)--------26(19)--------|
G|-----------------------------|-----------------------------|
D|-----------------------------|-----------------------------|
A|-----------------------------|-----------------------------|
E|-----------------------------|-----------------------------|
 
 
                                 |--|   
     E    E     E   E   E   Q    S  E   
e|---------------------------------15--|
B|--14b--14br--12------14--12----------|
G|--14b--14br--12------14--12----------|
D|-----------------14------------------|
A|-------------------------------------|
E|-------------------------------------|
 
 
     |---3---|   |----3----|                                                    
     E   E   E   E     E   E   E   E   Q        E   E   E   E   E   E   E   E   
e|--12---------------------------------------|---------------------------------|
B|------15--12--------------------14--14b----|-----14--12------14--12------14--|
G|--------------14br--12----------14--14b----|-----14--12------14--12------14--|
D|------------------------14--14-------------|--2----------14----------14------|
A|-------------------------------------------|--2------------------------------|
E|-------------------------------------------|--0------------------------------|
 
 
     E   E   E   E   Q     Q        E   E   E   E   E   E   E   E   
e|------------------------12-----|---------------------------------|
B|--12------14--12--------15b----|-----14--12------14--12------14--|
G|--12------14--12---------------|-----14--12------14--12------14--|
D|------14----------14-----------|--2----------14----------14------|
A|-------------------------------|--2------------------------------|
E|-------------------------------|--0------------------------------|
 
 
     E   E   E   E   E   E   Q        E   E   E   E   E   E   E   E   
e|------------------12------12-----|---------------------------------|
B|--12------14--12--15b-----15b----|-----14--12------14--12------14--|
G|--12------14--12-----------------|-----14--12------14--12------14--|
D|------14-------------------------|--2----------14----------14------|
A|---------------------------------|--2------------------------------|
E|---------------------------------|--0------------------------------|
 
 
     E   E   E   E   Q     Q        E   E   E   E   E   E   Q     
e|------------------------12-----|-------------------------------|
B|--12------14--12--------15b----|-----14--12------14--12--------|
G|--12------14--12---------------|-----14--12------14--12--------|
D|------14----------14-----------|--2----------14----------14----|
A|-------------------------------|--2----------------------------|
E|-------------------------------|--0----------------------------|
 
 
     H        H          
e|---------------------||
B|--12-----------------||
G|--12-----------------||
D|---------------------||
A|---------------------||
E|---------------------||
 
 
 
Duration Legend
**************************
W - whole
H - half
Q - quarter
E - 8th
S - 16th
. - note dotted
|-n-|  - n-tuplets
************************** 
 
 
Tablature Legend
*****************************************************
L - tied note
x - dead note
(n) - ghost note
h - hammer on
p - pull off
b - bend
br - bendRelease
S - shift slide
s - legato slide
/ -  slide up
\ -  slide down
tr - tril'
*****************************************************

            
            
Suggest correction
Creating personal tab
Creating personal tab
You can edit any tab online and save it as your Personal.

You can edit, replace or remove any tab part or add personal notes – all changes will be seen only by you.

Personal tabs can be accessed anytime from any device, even offline.
Learn more »
comments
print report bad tab
1 comment total.
0 reply
Ryan Crane 240 Jun 07, 2016 07:28 PM

great job buddy

guest
You may want to rate the tab now too:
select rating
Wanna post a correction for this tab? Suggest correction