Oops, an error
Loading. Please wait.

My Name Is Human Tab

version 1
version 1

Whole song

  • Its the only one right now because the song just came out.
4,588 views 282 this week
2 commentsread comments
1 2 3 4 5
x 10
add to favorites
launch autoscroll
font size
0
reset
how to read this tab
guitar tuner
Autoscroll
slow
fast
+/-
esc
set tempo
stop
Help us to improve Ultimate-Guitar.com Take our survey!
×
About this tab version
Its the only one right now because the song just came out. Was this info helpful? Yes No
Tab for the new Highly Suspect song, not saying its 100% accurate, especially in the breakdown, the rest
seems pretty close.

[Intro]
e|-----------------------------------------------------------------------|
B|---------------10b----10----------------------------10b----13----------|
G|--10-----------12b--------9-----7------10-----------12b--------9-----7-|
D|-----------------------------------------------------------------------|
A|-----------------------------------------------------------------------|
E|-----------------------------------------------------------------------|

[Verse]
There is no guitar in the verse, but there is a short lead-in into the chorus.

[Pre-Chorus]
e|---------------------------------|
B|---------------------------------|
G|---------------------------------|
D|---------------------------------|
A|----------0---2----------3-------|
E|--1---3--------------------------|

[Chorus]
e|---------------------------------|
B|---------------------------------|
G|-7-------------------------------|
D|-7---(x16)-----8-----------------|
A|-5-------------8---(x16)---------|
E|---------------6-----------------|

[Post-Chorus]
e|-------------------------------------------------------------------------------|
B|---------------10b----10-------------------------------------------------------|
G|--10-----------12b--------9-----7------9--7--9--7---10--7--10--7--10--7--10--7-|
D|-------------------------------------------------------------------------------|
A|-------------------------------------------------------------------------------|
E|-------------------------------------------------------------------------------|

[Verse]
Again nothing but a transition to the chorus

[Post-Chorus]
e|---------------------------------|
B|---------------------------------|
G|---------------------------------|
D|---------------------------------|
A|----------0---2----------3-------|
E|--1---3--------------------------|

[Chorus]
e|---------------------------------|
B|---------------------------------|
G|-7-------------------------------|
D|-7---(x16)-----8-----------------|
A|-5-------------8---(x16)---------|
E|---------------6-----------------|

[Breakdown] x3
The last bend is slightly different on the second repeat, and omitted for the
transition to the chorus on the last repeat
e|-----9b-----------------------------|
B|-----12b-------10b------8b------7b--|
G|---------------12b------10b-----9b--|
D|-8-8-----8-8-------8-8------8-8-----|
A|-8-8-----8-8-------8-8------8-8-----|
E|-6-6-----6-6-------6-6------6-6-----|

[Chorus]
e|---------------------------------|
B|---------------------------------|
G|-7-------------------------------|
D|-7---(x16)-----8-----------------|
A|-5-------------8---(x16)---------|
E|---------------6-----------------|

[Ending]
e|---------------------------------|
B|---------------------------------|
G|---------------------------------|
D|---------------------------------|
A|----------0---2b-----------------|
E|--1---3--------------------------|



************************************

| b  Bend 

************************************
Suggest correction
comments
print report bad tab
2 comments total.
0 reply
billysteed11 10 Sep 30, 2016 08:43 AM

Nice one buddy!

0 reply
shmplowright91 10 Oct 04, 2016 05:34 AM

sweet song apart from the intro, maybe make it more easier,.... what im trying to say is the song is fairly easy your just need to tweak the intro. but so far great reviews from me!!

guest
You may want to rate the tab now too:
select rating
Wanna post a correction for this tab? Suggest correction