Oops, an error
Loading. Please wait.

Send Me An Angel Tab

295 views 42 this week
no commentswrite comment
1 2 3 4 5
2 more votes to show rating
add to favorites
launch autoscroll
font size
0
reset
how to read this tab
guitar tuner
Autoscroll
slow
fast
+/-
esc
set tempo
stop
Help us to improve Ultimate-Guitar.com Take our survey!
×
Author
Difficulty
novice
About this tab version
Full tab of the album version of the song. Was this info helpful? Yes No
MCID.

[Intro] - 0:00
e|------------7--------------------------------------------------------------|
B|-------------7-------------------------------------------------------------|
G|--------------7------------------------------------------------------------|
D|---------------------------------------------------------------------------|
A|---------------------------------------------------------------------------|
E|---------------------------------------------------------------------------|

[Verse] - 0:14
e|---------------------------------------------------------------------------|
B|---------------------------------------------------------------------------|
G|---------------------------------------------------------------------------|
D|---9-(let ring)------------------------------------------------------------|
A|---------------------------------------------------------------------------|
E|---------------------------------------------------------------------------|

0:29
e|---------------------------------------------------------------------------|
B|---------------------------------------------------------------------------|
G|--4-------6-------16(w/ delay pedal)---------------------------------------|
D|---4------7----------------------------------------------------------------|
A|----2------------------------------------2(w/ delay pedal)-----------------|
E|---------------------------------------------------------------------------|

0:49
e|---------------------------------------------------------------------------|
B|---------------------------------------------------------------------------|
G|--4-------6----------------------------------------------------------------|
D|---4------7-------9(w/ delay pedal)----------------------------------------|
A|----2----------------------------------------------------------------------|
E|---------------------------------------------------------------------------|

1:08
e|---------------------------------------------------------------------------|
B|---------------------------------------------------------------------------|
G|--4-------6----------------------------------------------------------------|
D|---4------7----------------------------------------------------------------|
A|----2----------------------------------------------------------------------|
E|---------------------------------------------------------------------------|

[Chorus] - 1:21
e|---------------------------------------------------------------------------|
B|----7-10-7----7-10-7-------------------------------------------------------|
G|---7---------7---------------9p7----9b11-9pb11-9pbr11----------------------|
D|--9---------9-------------------9------------------------------------------|
A|---------------------------------------------------------------------------|
E|---------------------------------------------------------------------------|

e|---------------------------------------------------------------------------|
B|----7-10-7----7-10b--------------------------------------------------------|
G|---7---------7-----7-------------------------------------------------------|
D|--9---------9--------------------------------------------------------------|
A|---------------------------------------------------------------------------|
E|---------------------------------------------------------------------------|

[Verse] - 1:51
e|---------------------------------------------------------------------------|
B|---------------------------------------------------------------------------|
G|---------------------------------------------------------------------------|
D|---------------------------9(let ring)-------------------------------------|
A|--2(w/ delay pedal)--------------------------------------------------------|
E|---------------------------------------------------------------------------|

2:07
e|---------------------------------------------------------------------------|
B|---------------------------------------------------------------------------|
G|--4-----6----7---------4-----6---------------------------------------------|
D|---4----7----9----------4----7---------------------------------------------|
A|----2--------------------2-------------------------------------------------|
E|---------------------------------------------------------------------------|

[Chorus] - 2:21
e|---------------------------------------------------------------------------|
B|----7-10-7----7-10-7--------------------10b12-10pb12-10pb12-10pbr12--------|
G|---7---------7---------------7-9--9b11-------------------------------------|
D|--9---------9--------------------------------------------------------------|
A|---------------------------------------------------------------------------|
E|---------------------------------------------------------------------------|

e|---------------------------------------------------------------------------|
B|----7-10-7----7-10b--------------------------------------------------------|
G|---7---------7-----7-------------------------------------------------------|
D|--9---------9------------9----9--7-----------------------------------------|
A|-------------------------9----9--7-----------------------------------------|
E|-------------------------7----7--5-----------------------------------------|

[Breakdown/Solo] - 2:51
e|---------------------------------------------------------------------------|
B|---------------------------------------------------------------------------|
G|---------------------------------------------------------------------------|
D|------9----7---------------------9----7------------------------------------|
A|----9----9---------------------9----9--------------------------------------|
E|--7----7-----9-10-7-9-10-----7----7-----9-10-7-9-10-----3--3/7---5--5/9----|

[Solo] - 3:03
e|-12------------------------------------------------------------------------|
B|-15b17--15pb17-15pb17-15pbr17--15-12---------------------------------------|
G|----------------------------------------14-12-------12h14--14b--12----12---|
D|----------------------------------------------12/14----------------14------|
A|---------------------------------------------------------------------------|
E|---------------------------------------------------------------------------|

e|-15-14-12------------------------------------------------------------------|
B|----------15-12-15b17-15b17-15--15brb17------------------------------------|
G|---------------------------------------------------------------------------|
D|---------------------------------------------------------------------------|
A|---------------------------------------------------------------------------|
E|---------------------------------------------------------------------------|

[Chorus] - 3:17
e|---------------------------------------------------------------------------|
B|----7-10-7----7-10-7-------------------------------------------------------|
G|---7---------7---------------9b11-9pb11-9pb11-9pbr11-----------------------|
D|--9---------9--------------------------------------------------------------|
A|---------------------------------------------------------------------------|
E|---------------------------------------------------------------------------|

e|---------------------------------------------------------------------------|
B|----7-10-7----7-10b---------------7--7--7----------------------------------|
G|---7---------7-----7---9----------7--7--7--(very faint in the background)--|
D|--9---------9------------9-------9--9--9-----------------------------------|
A|---------------------------------------------------------------------------|
E|---------------------------------------------------------------------------|

e|---------------------------------------------------------------------------|
B|----7-10-7----7-10b-10b-10br-7---------------------------------------------|
G|---7---------7-------------------------------------------------------------|
D|--9---------9--------------------------------------------------------------|
A|---------------------------------------------------------------------------|
E|---------------------------------------------------------------------------|

e|---------------------------------------------------------------------------|
B|----7-10-7----7-10b-7-12b15------------------------------------------------|
G|---7---------7-------------------------------------------------------------|
D|--9---------9--------------------------------------------------------------|
A|---------------------------------------------------------------------------|
E|---------------------------------------------------------------------------|

[Outro] - 4:11
e|---------------------------------------------------------------------------|
B|---------------------------------------------------------------------------|
G|---------------------------------------------------------------------------|
D|-----9---------------------------------------------------------------------| x7
A|-----------9---------------------------------------------------------------|
E|-7-7---7-7---7-10----------------------------------------------------------|

e|-----------7-7-7\----------------------------------------------------=-----|
B|-----------7-7-7\----------------------------------------------------------|
G|-----------7-7-7\----------------------------------------------------------|
D|-----9---------------------------------------------------------------------|
A|---------------------------------------------------------------------------|
E|-7-7---7-7-----------------------------------------------------------------|

************************************

| p    Pull-off
| b    Bend
| pb   Pre-bend
| pbr  Pre-bend release
| /    Slide up
| h    Hammer-on
| br   Bend release
| \    Slide down

************************************
Suggest correction
Give kudos to tab author, rate the tab!
1 2 3 4 5
comments
print report bad tab
guest
You may want to rate the tab now too:
select rating
Wanna post a correction for this tab? Suggest correction