Oops, an error
Loading. Please wait.

Serotonia tab

version 2
version 2

Whole song

3,097 views 15 this week
no commentswrite comment
1 2 3 4 5
x 3
add to favorites
×
Save as Personal and add changes to this tab that will be seen only by you. Learn more ›
×
You can save this tab as Personal to edit and correct it or add notes. All changes will be seen only by you. Learn more »
launch autoscroll
font size
0
reset
how to read this tab
guitar tuner
edit
Autoscroll
slow
fast
+/-
esc
set tempo
stop
Author
Difficulty
Here's a video of me playing it if you need a visual/
https://youtu.be/2MDPaM6aCyo  


[Verses]   

e|----------------------------------------------------------------|
B|----------------------------------------------------------------|
G|----------------------------------------------------------------|
D|---5-----5-----5----1-----1-----1---2----2-----2---2-----4p2---0|
A|-----5-----5----------0-----0---------0----0---------0----------|
E|-3-----3-----3----2-----2-----2---0-----0----0---0-----0-----0--|

e|----------------------------------------------------------------|
B|----------------------------------------------------------------|
G|------------------------------------------------2/4-4-4-4\2-----|x2
D|---5-----5-----5----1-----1-----1---2----2----2-------------2---|(only on the intro,not in the second verse)
A|-----5-----5----------0-----0---------0----0--------------------|
E|-3-----3-----3----2-----2-----2---0-----0----0------------------|
                                                                  
e|----------------------------------------------------------------|
B|----------------------------------------------------------------|
G|----------------------------------------------------------------|
D|---5-----5-----5----1-----1-----1---2----2-----2---4---5---2-0--|
A|-----5-----5----------0-----0---------0----0--------------------|
E|-3-----3-----3----2-----2-----2---0-----0----0---0---0---0------|

e|----------------------------------------------------------------|
B|----------------------------------------------------------------|
G|----------------------------------------------------------------|
D|---5-----5-----5----1-----1-----1--2~~~-------------------------|
A|-----5-----5----------0-----0------0~~~-------------------------|
E|-3-----3-----3----2-----2-----2---------------------------------|

e|-7--5--2-----|
B|-8--7--3-----|
G|-------------|
D|-------------|
A|-------------|
E|-------------|

e|-0--0--0-------0----0--0---------------------3-----3---3-3---3--3|
B|-2--2----------3----2--2-------3-------------3-----3---3-3---3--3|
G|-0--0--------0------0--0---2/4---4\2p0-------0-----0---0-0---0--0|
D|-2--2----2/4-----4--2--2----------------2----2-------------------|
A|---------------------------------------------2-------------------|
E|------------------------------------------0------0---0-----0---0-|
                             It's california dreamin'...

e|-------3p0---5-------------------------------------------------|
B|-----3---------------------------------------------------------|
G|-2/4-------4---------------------------------------------------|
D|---------------------------------------------------------------|
A|---------------------------------------------------------------|
E|---------------------------------------------------------------|

e|-0--0--0-------0----0--0--------------------3-3---2---2--0--|
B|-2--2----------3----2--2-------3------------3-3---3---3--2--|
G|-0--0--------0------0--0---2/4---4\2p0------0-0---2---2--0--|
D|-2--2----2/4-----4--2--2----------------2---2-2-----0----2--|
A|--------------------------------------------2-2-------------|
E|------------------------------------------0-----------------|


Verse Repeats itself. 
I like to use the open strings on the G-chord for the second verse, so instead of a g-power chord (g5) you 
would play 3rd (e string) Open (g-string) and open (d string) for the alternate picking. just gives it a more
inviting sound and makes me feel less repetitive while playing.

  
end of the second verse, the little walk up leading into the chorus

e|---------------------------------------------------------------|
B|---------------------------------------------------------------|
G|---------------------------------------------------------------|
D|---------------------------------------------------------------|
A|---------------------------------------------------------------|
E|-0-2-3-5-------------------------------------------------------|


[Chorus]
   
The chorus can also be played starting on the 3rd fret (c) if it's an easier transition. 

e|-----------------------------------------------------------------------------------|
B|-----------------------------------------------------------------------------------|
G|-----------------------------------------------------------------------------------|
D|-1010101010101010-13-13-13-13-13-13-13-13--12-12-12-12-12-12-12-12-9-9-9-9-9-9-9-9-|
A|-1010101010101010-13-13-13-13-13-13-13-13--12-12-12-12-12-12-12-12-9-9-9-9-9-9-9-9-|
E|-8-8-8-8-8-8-8-8--11-11-11-11-11-11-11-11--10-10-10-10-10-10-10-10-7-7-7-7-7-7-7-7-|

e|-----------------------------------------------------------------------------------|
B|-----------------------------------------------------------------------------------|
G|-----------------------------------------------------------------------------------|
D|1010101010101010-13-13-13-13-13-13-13-13--12-12-12-12-12-12-12-12--x-x-9-9-9-9-----|
A|1010101010101010-13-13-13-13-13-13-13-13--12-12-12-12-12-12-12-12--x-x-9-9-9-9-----|
E|8-8-8-8-8-8-8-8--11-11-11-11-11-11-11-11--10-10-10-10-10-10-10-10--x-x-7-7-7-7-----|

e|-------------------------------------------------------------------------------------------|
B|-------------------------------------------------------------------------------------------|
G|-------------------------------------------------------------------------------------------|
D|1010101010101010-13-13-13-13-13-13-13-13--12-12-12-12-12-12-12-12-12-12-12-12-12-12-12-12--|
A|1010101010101010-13-13-13-13-13-13-13-13--12-12-12-12-12-12-12-12-12-12-12-12-12-12-12-12--|
E|8-8-8-8-8-8-8-8--11-11-11-11-11-11-11-11--10-10-10-10-10-10-10-10 10-10-10-10-10-10-10-10--|

e|---------------------------------------------------------------|
B|---------------------------------------------------------------|
G|---------------------------------------------------------------|
D|1111111111111111-11~~-----11---11--10--------------------------|
A|1111111111111111-11~~---11--11-----10---(walk up into solo)----|
E|9-9-9-9-9-9-9-9--9-~~--9------9----8-----0-2-3-0---------------|


[Solo]

Honestly, its all in the key of E, utilizing a lot of bends.
Just jam out.I enjoy adding my own little flair to songs.
Make sure its psychedelic, yet funky, yet bluesy. Because this band is incredible at getting the guitar 
to portray their thoughts.  Watch the video link up top if you would like to see my way of improvising 
the solo.
The solo starts at 2:40


[Verse 3]
 
e|---------------------------------------------------------------|
B|---------------------------------------------------------------|
G|---------------------------------------------------------------|
D|-0--1--2-----0--1--2----4p2--0--1--2----4p2--2---0--1--2-------|
A|---------------------------------------------------------------|
E|-3--2--0-----3--2--0--0------3--2--0--0-----0----3--2--0-------|
   I'm going to move to california....

e|---------------------------------------------------------------|
B|---------------------------------------------------------------|
G|---------------------------------------------------------------|
D|-x-x--x--x-x-x-------------------------------------------------|
A|-x-x--x--x-x-x-------------------------------------------------|
E|-x-x--x--x-x-x-------------------------------------------------|

e|--------------------------------------------------------------|
B|---(Played Emphatically, while muting after every hit)--------|
G|--------------------------------------------------------------|
D|-5--5--1--1--2--2--2--2---5--5--1--1--2--2---2-xx-4p2---------|
A|-5--5--x--x--x--x--x--x---5--5--x--x--x--x-----xx-------------|
E|-3--3--2--2--0--0--0--0---3--3--2--2--0--0--0--xx-------------|
   Now new york you know i love you....

e|---------------------------------------------------------------|
B|---------------------------------------------------------------|
G|---------------------------------------------------------------|
D|-5--5--1--1--2--2---2-xx-4p2-----------------------------------|
A|-5--5--x--x--x--x-----xx---------------------------------------|
E|-3--3--2--2--0--0--0--xx---------------------------------------|
  You Made me who i am....
   
e|----------------------------------------------------------------|
B|----------(repeat this part 2x's)-------------------------------|
G|----------------------------------------------------------------|
D|-5-5-5-5-5-5-5-5-1-1-1-1-1-1-1-1-2-2-2-2-2-2-2-2-2-2-2-2-4p2-2-2|
A|-5-5-5-5-5-5-5-5-x-x-x-x-x-x-x-x-x-x-x-x-x-x-x-x-x-x-x-x-x-x-x-x|
E|-3-3-3-3-3-3-3-3-2-2-2-2-2-2-2-2-0-0-0-0-0-0-0-0-0-0-0-0-0-0-0-0|
  Which is not that good of a person....


[Chorus] x2

e|-----------------------------------------------------------------------------------|
B|-----------------------------------------------------------------------------------|
G|-----------------------------------------------------------------------------------|
D|-1010101010101010-13-13-13-13-13-13-13-13--12-12-12-12-12-12-12-12-9-9-9-9-9-9-9-9-|
A|-1010101010101010-13-13-13-13-13-13-13-13--12-12-12-12-12-12-12-12-9-9-9-9-9-9-9-9-|
E|-8-8-8-8-8-8-8-8--11-11-11-11-11-11-11-11--10-10-10-10-10-10-10-10-7-7-7-7-7-7-7-7-|

e|-----------------------------------------------------------------------------------|
B|-----------------------------------------------------------------------------------|
G|-----------------------------------------------------------------------------------|
D|1010101010101010-13-13-13-13-13-13-13-13--12-12-12-12-12-12-12-12--x-x-9-9-9-9-----|
A|1010101010101010-13-13-13-13-13-13-13-13--12-12-12-12-12-12-12-12--x-x-9-9-9-9-----|
E|8-8-8-8-8-8-8-8--11-11-11-11-11-11-11-11--10-10-10-10-10-10-10-10--x-x-7-7-7-7-----|

e|-------------------------------------------------------------------------------------------|
B|-------------------------------------------------------------------------------------------|
G|-------------------------------------------------------------------------------------------|
D|1010101010101010-13-13-13-13-13-13-13-13--12-12-12-12-12-12-12-12-12-12-12-12-12-12-12-12--|
A|1010101010101010-13-13-13-13-13-13-13-13--12-12-12-12-12-12-12-12-12-12-12-12-12-12-12-12--|
E|8-8-8-8-8-8-8-8--11-11-11-11-11-11-11-11--10-10-10-10-10-10-10-10 10-10-10-10-10-10-10-10--|

e|------------------------------------------------------------------|
B|------------------------------------------------------------------|
G|------------------------------------------------------------------|
D|11111111111111111111111111111111-10101010101010101010101010101010-|
A|11111111111111111111111111111111-10101010101010101010101010101010-|
E|9-9-9-9-9-9-9-9-9-9-9-9-9-9-9-9--8-8-8~8~8-8-8-8-8-8-8-8-8-8-8-8--|

Walk up
E|-0-2-3-0|

e|-----------------------------------------------------------------------------------|
B|-----------------------------------------------------------------------------------|
G|-----------------------------------------------------------------------------------|
D|-1010101010101010-13-13-13-13-13-13-13-13--12-12-12-12-12-12-12-12-9-9-9-9-9-9-9-9-|
A|-1010101010101010-13-13-13-13-13-13-13-13--12-12-12-12-12-12-12-12-9-9-9-9-9-9-9-9-|
E|-8-8-8-8-8-8-8-8--11-11-11-11-11-11-11-11--10-10-10-10-10-10-10-10-7-7-7-7-7-7-7-7-|

e|-----------------------------------------------------------------------------------|
B|-----------------------------------------------------------------------------------|
G|-----------------------------------------------------------------------------------|
D|1010101010101010-13-13-13-13-13-13-13-13--12-12-12-12-12-12-12-12--x-x-9-9-9-9-----|
A|1010101010101010-13-13-13-13-13-13-13-13--12-12-12-12-12-12-12-12--x-x-9-9-9-9-----|
E|8-8-8-8-8-8-8-8--11-11-11-11-11-11-11-11--10-10-10-10-10-10-10-10--x-x-7-7-7-7-----|

e|-------------------------------------------------------------------------------------------|
B|-------------------------------------------------------------------------------------------|
G|-------------------------------------------------------------------------------------------|
D|1010101010101010-13-13-13-13-13-13-13-13--12-12-12-12-12-12-12-12-12-12-12-12-12-12-12-12--|
A|1010101010101010-13-13-13-13-13-13-13-13--12-12-12-12-12-12-12-12-12-12-12-12-12-12-12-12--|
E|8-8-8-8-8-8-8-8--11-11-11-11-11-11-11-11--10-10-10-10-10-10-10-10 10-10-10-10-10-10-10-10--|

e|---------------------------------------------------------------|
B|---------------------------------------------------------------|
G|---------------------------------------------------------------|
D|1111111111111111-11~~-----11---11--10--11-----------------10---|
A|1111111111111111-11~~---11--11-----10--11-----------------10---|
E|9-9-9-9-9-9-9-9--9-~~--9------9----8---9------------------8----|
                                         ^                  ^ 
This is the little fill i do at the end, its mellow and i feel brings the song down.
Played on second to last chord           ^                  ^

e|---------------------------------------^------------------^-----|
B|---------------------------------------^------------------^-----|
G|---------------------------------------^-------7---7 9^11-9~~---|
D|---------------------------------------^--7-9~~--9--------------|
A|---------------------------------------/9-----------------------|
E|----------------------------------------------------------------|


***************************************************
| /  slide up
| \  slide down
| h  hammer-on
| p  pull-off
| ~  vibrato
| +  harmonic
| x  Mute note
***************************************************

            
            
Suggest correction
Creating personal tab
Creating personal tab
You can edit any tab online and save it as your Personal.

You can edit, replace or remove any tab part or add personal notes – all changes will be seen only by you.

Personal tabs can be accessed anytime from any device, even offline.
Learn more »
Give kudos to tab author, rate the tab!
1 2 3 4 5
comments
print report bad tab
guest
You may want to rate the tab now too:
select rating
Wanna post a correction for this tab? Suggest correction