Oops, an error
Loading. Please wait.

Serotonia tab

version 3
version 3

Whole song

3,475 views 27 this week
no commentswrite comment
1 2 3 4 5
2 more votes to show rating
add to favorites
×
Save as Personal and add changes to this tab that will be seen only by you. Learn more ›
×
You can save this tab as Personal to edit and correct it or add notes. All changes will be seen only by you. Learn more »
launch autoscroll
font size
0
reset
how to read this tab
guitar tuner
edit
Autoscroll
slow
fast
+/-
esc
set tempo
stop
Author
Difficulty
Hey guys, this isn't going to be exactly the way he plays it, but I've seen them play it twice live, and have
the song on me, he kinda changes it up live and doesn't play exactly. He plays a Strat through a combo amp
with a little fuzz for this. I believe he uses some kinda chorus or rotary effect life during all the bluesy
stuff in the song. Enjoy! This isn't exact, but it's pretty close, I figured it out by ear. I threw in the
basic chord info as well. 


[Intro]   

           first phrase                             end of phrase
       G             F#m6              Em
e|---------------------------------------------------------------------------|
B|---------------------------------------------------------------------------|
G|--0---0--------------------------------------------------------------------|
D|---0---0------1----1--------2-----2--------2-----4p2----0------------------|
A|----2---2-------0----0--------2-----2--------2-----------------------------|
E|-3--------3--2----2----2--0-----0-----0-0-0----0-----0---------------------|

e|---------------------------------------------------------------------------|
B|---------------------------------------------------------------------------|
G|---------------------------------------------------------------------------|
D|---0-----0---------1-----1-----------2-----2---------9-9-9-9-7-0-----------|
A|-----2-----2---------0-----0-----------2-----2-----------------------------|
E|-3-----3-----3-3-2-----2-----2--2--0-----0-----0-0-0-----------------------|


[Verse]

"I wish that everyone I knew was dead"
e|---------------------------------------------------------------------------|
B|---------------------------------------------------------------------------|
G|---------------------------------------------------------------------------|
D|---0-----0---------1-----1-----------2-----2-----2---2-----4p2----0--------|
A|-----2-----2---------0-----0-----------2-----2---------2-------------------|
E|-3-----3-----3-3-2-----2-----2--2--0-----0-----0---0-----0-----0-----------|

"So that I'd never have to pick up the phone"
e|---------------------------------------------------------------------------|
B|---------------------------------------------------------------------------|
G|---------------------------------------------------------------------------|
D|---0-----0---------1-----1-----------2-----2---------9-9-9-9-7-0-----------|
A|-----2-----2---------0-----0-----------2-----2-----------------------------|
E|-3-----3-----3-3-2-----2-----2--2--0-----0-----0-0-0-----------------------|

"I just wanna be naked"
e|---------------------------------------------------------------------------|
B|---------------------------------------------------------------------------|
G|---------------------------------------------------------------------------|
D|---0-----0-----0---1-----1------1----2-----2-----2---4-5-2-0---------------|
A|-----2-----2---------0-----0-----------2-----2-----------------------------|
E|-3-----3-----3---2-----2-----2-----0-----0-----0---0-----------------------|

"And masturbate all day at home"
e|---------------------------------------------------------------------------|
B|---------------------------------------------------------------------------|
G|---------------------------------------------------------------------------|
D|---0-----0-----0---1-----1------1------------------------------------------|
A|-----2-----2---------0-----0-----------------------------------------------|
E|-3-----3-----3---2-----2-----2-----0---------------------------------------| [let ring]


[Turnaround]

e|-7--5--2-------------------------------------------------------------------|
B|-8--7--3-------------------------------------------------------------------|
G|-9--7--2-------------------------------------------------------------------|
D|---------------------------------------------------------------------------|
A|---------------------------------------------------------------------------|
E|---------------------------------------------------------------------------|


[Pre chorus]

"California Dreamin'"  
"Oh my heart just started screamin'"        play with real easygoing strumming
e|-0--0-------0---0---------------------------0------------------------------|
B|-2--2-------3---2-------3-------------------3------------------------------|
G|-0--0-------0---0---2/4---4\2--0------------0------------------------------|
D|-2--2--2/4--4---2----------------0h2--------2------------------------------|
A|-0--0-------0---0---------------------------2------------------------------|
E|----------------------------------------0---0------------------------------|

e|-0--0---------3------------------------------------------------------------|
B|-3--3-------3---3---3------------------------------------------------------|
G|-0--0---2/4-------4--------------------------------------------------------|
D|-2--2----------------------------------------------------------------------|
A|-2--2----------------------------------------------------------------------|
E|-0--0----------------------------------------------------------------------| [repeat]

"I think I    wanna be     alive"
e|-0-----0----2------3-----0-------------------------------------------------|
B|-3-----3----3------3-----2-------------------------------------------------|
G|-0-----0----2------2-----0-------------------------------------------------|
D|-2-----2----0------0-----2-------------------------------------------------|
A|-2-----2-----------------0-------------------------------------------------|
E|-0-----0-------------------------------------------------------------------|


[Verse 2]

"I wish I lived on top of the sunset"
e|---------------------------------------------------------------------------|
B|---------------------------------------------------------------------------|
G|---------------------------------------------------------------------------|
D|---0-----0---------1-----1-----------2-----2-----2---2-----4p2----0--------|
A|-----2-----2---------0-----0-----------2-----2---------2-------------------|
E|-3-----3-----3-3-2-----2-----2--2--0-----0-----0---0-----0-----0-----------|

"Yeah, cuz Hollywood you know my type"
e|---------------------------------------------------------------------------|
B|---------------------------------------------------------------------------|
G|---------------------------------------------------------------------------|
D|---0-----0---------1-----1-----------2-----2---------9-9-9-9-7/12----------|
A|-----2-----2---------0-----0-----------2-----2-----------------------------|
E|-3-----3-----3-3-2-----2-----2--2--0-----0-----0-0-0-----------------------|

"I'd get stoned all night with Lana"
e|---------------------------------------------------------------------------|
B|---------------------------------------------------------------------------|
G|---------------------------------------------------------------------------|
D|---0-----0-----0---1-----1------1----2-----2-----2---4-5-2-0---------------|
A|-----2-----2---------0-----0-----------2-----2-----------------------------|
E|-3-----3-----3---2-----2-----2-----0-----0-----0---0-----------------------|

"Half in and half out of the light"
e|---------------------------------------------------------------------------|
B|---------------------------------------------------------------------------|
G|---------------------------------------------------------------------------|
D|---0-----0-----0---1-----1------1------------------------------------------|
A|-----2-----2---------0-----0-----------------------------------------------|
E|-3-----3-----3---2-----2-----2-----0-2-3-0---------------------------------|


[Pre chorus]

"California Dreamin'"  
"Oh my heart just started screamin'"        play with real easygoing strumming
e|-0--0-------0---0---------------------------0------------------------------|
B|-2--2-------3---2-------3-------------------3------------------------------|
G|-0--0-------0---0---2/4---4\2--0------------0------------------------------|
D|-2--2--2/4--4---2----------------0h2--------2------------------------------|
A|-0--0-------0---0---------------------------2------------------------------|
E|----------------------------------------0---0------------------------------|


e|-0--0---------3------------------------------------------------------------|
B|-3--3-------3---3---3------------------------------------------------------|
G|-0--0---2/4-------4--------------------------------------------------------|
D|-2--2----------------------------------------------------------------------|
A|-2--2----------------------------------------------------------------------|
E|-0--0----------------------------------------------------------------------| [repeat]

"I think I    wanna be     alive"
e|-0-----0----2------3-----0-------------------------------------------------|
B|-3-----3----3------3-----2-------------------------------------------------|
G|-0-----0----2------2-----0-------------------------------------------------|
D|-2-----2----0------0-----2-------------------------------------------------|
A|-2-----2-----------------0-------------------------------------------------|
E|-0-----0-------------------------0-2-3-0-----------------------------------|


[Chorus]

I'm not positive this is the right chording, but I didn't like the way power chords sound for it,
this is what I came up with

     "I can    feel it  too" 
e|---0---------0------------0-----2------------------------------------------|
B|---1---------4------------3-----4------------------------------------------|
G|---0---------0------------0-----4------------------------------------------|
D|---2---------5------------4-----4------------------------------------------|
A|---3---------6------------5-----2------------------------------------------|
E|---------------------------------------------------------------------------|

"So what am I waiting for? I'm afraid of you  
e|---2---------------------0----0-------0--------7-7-7-7---------------------|
B|---4---------------------1----4-------3--------7-7-7-7---------------------|
G|---4---------------------0----0-------0--------8-8-8-8---------------------|
D|---4---------------------2----5-------4--------9-9-9-9---------------------|
A|---2---------------------3----6-------5--------9-9-9-9---------------------|
E|-----------------------------------------------7-7-7-7---------------------|

 "It's just I'm not that good of a person, but I might be enough for you""  
e|---0---------0------------0------------------------------------------------|
B|---1---------4------------3------------------------------------------------|
G|---0---------0------------0------------------------------------------------|
D|---2---------5------------4------------------------------------------------|
A|---3---------6------------5--------4-3-------------------------------------|
E|----------------------------------------------0-2-3-0----------------------|


[Solo]

I don't know the solo, just that the rhythm part stays the same
e|-0--0-------0---0---------------------------0------------------------------|
B|-2--2-------3---2-------3-------------------3------------------------------|
G|-0--0-------0---0---2/4---4\2--0------------0------------------------------|
D|-2--2--2/4--4---2----------------0h2--------2------------------------------|
A|-0--0-------0---0---------------------------2------------------------------|
E|----------------------------------------0---0------------------------------|

e|-0--0---------3------------------------------------------------------------|
B|-3--3-------3---3---3------------------------------------------------------|
G|-0--0---2/4-------4--------------------------------------------------------|
D|-2--2----------------------------------------------------------------------|
A|-2--2----------------------------------------------------------------------|
E|-0--0----------------------------------------------------------------------| [repeat]

End of the solo section
e|-0-----0----2------3-----0-------------------------------------------------|
B|-3-----3----3------3-----2-------------------------------------------------|
G|-0-----0----2------2-----0-------------------------------------------------|
D|-2-----2----0------0-----2-------------------------------------------------|
A|-2-----2-----------------0-------------------------------------------------|
E|-0-----0-------------------------------------------------------------------|


[Last verse] 

I pluck this part with my fingers 
   "I'm gonna move to California 
e|---------------------------------------------------------------------------|
B|---------------------------------------------------------------------------|
G|---------------------------------------------------------------------------|
D|--0--------1------------2--------------------------------------------------|
A|---------------------------------------------------------------------------|
E|--3--------2------------0--------------------------------------------------|

  "I'm gonna melt into the sand"
e|---------------------------------------------------------------------------|
B|---------------------------------------------------------------------------|
G|---------------------------------------------------------------------------|
D|--0--------1------------2--------4p2p0-------------------------------------|
A|---------------------------------------------------------------------------|
E|--3--------2------------0--------------------------------------------------|

  "Slowdance with Elizabeth Taylor...Audrey" 
e|---------------------------------------------------------------------------|
B|---------------------------------------------------------------------------|
G|---------------------------------------------------------------------------|
D|--0--------1------------2--------------------------------------------------|
A|---------------------------------------------------------------------------|
E|--3--------2------------0--------------------------------------------------|

  "Bum a cigarette from Carey Grant" 
e|--------------------------------------xxxxxx-------------------------------|
B|--------------------------------------xxxxxx-------------------------------|
G|--------------------------------------xxxxxx-------------------------------|
D|--0--------1------------2-------------xxxxxx-------------------------------|
A|--------------------------------------xxxxxx-------------------------------|
E|--3--------2------------0-------------xxxxxx-------------------------------|

  "Now New York you know I love you, cuz you made me who I am" 
e|---------------------------------------------------------------------------|
B|---------------------------------------------------------------------------|
G|---------------------------------------------------------------------------|
D|--0-0----1-1----2-2-2-2---------0-0----1-1---2-2-2-2--4p2p0----------------|
A|--x-x----x-x----x-x-x-x---------x-x----x-x---x-x-x-x-----------------------|
E|--3-3----2-2----0-0-0-0---------3-3----2-2---0-0-0-0-----------------------|

   "Which is not that good of a person" 
e|---------------------------------------------------------------------------|
B|---------------------------------------------------------------------------|
G|---------------------------------------------------------------------------|
D|---0-----0---------1-----1-----------2-----2-----2---2-----4p2----0--------|
A|-----2-----2---------0-----0-----------2-----2---------2-------------------|
E|-3-----3-----3-3-2-----2-----2--2--0-----0-----0---0-----0-----0-----------|

   "I need to feel something again" 
e|---------------------------------------------------------------------------|
B|---------------------------------------------------------------------------|
G|---------------------------------------------------------------------------|
D|---0-----0-----0---1-----1------1------------------------------------------|
A|-----2-----2---------0-----0-----------------------------------------------|
E|-3-----3-----3---2-----2-----2-----0-2-3-0---------------------------------|


[Chorus]

     "I can    feel it  too" 
e|---0---------0------------0-----2------------------------------------------|
B|---1---------4------------3-----4------------------------------------------|
G|---0---------0------------0-----4------------------------------------------|
D|---2---------5------------4-----4------------------------------------------|
A|---3---------6------------5-----2------------------------------------------|
E|---------------------------------------------------------------------------|

"So what am I waiting for? I'm afraid of you  
e|---2---------------------0----0-------0--------7-7-7-7---------------------|
B|---4---------------------1----4-------3--------7-7-7-7---------------------|
G|---4---------------------0----0-------0--------8-8-8-8---------------------|
D|---4---------------------2----5-------4--------9-9-9-9---------------------|
A|---2---------------------3----6-------5--------9-9-9-9---------------------|
E|-----------------------------------------------7-7-7-7---------------------|

 "It's just I'm not that good of a person, but I might be enough for you""  
e|---0---------0------------0------------------------------------------------|
B|---1---------4------------3------------------------------------------------|
G|---0---------0------------0------------------------------------------------|
D|---2---------5------------4------------------------------------------------|
A|---3---------6------------5--------4-3-------------------------------------|
E|----------------------------------------------0-2-3-0----------------------|


************************************

| x  Dead note
| h  Hammer-on
| p  Pull-off
| /  Slide up
| \  Slide down

************************************

            
            
Suggest correction
Creating personal tab
Creating personal tab
You can edit any tab online and save it as your Personal.

You can edit, replace or remove any tab part or add personal notes – all changes will be seen only by you.

Personal tabs can be accessed anytime from any device, even offline.
Learn more »
Give kudos to tab author, rate the tab!
1 2 3 4 5
comments
print report bad tab
guest
You may want to rate the tab now too:
select rating
Wanna post a correction for this tab? Suggest correction