Oops, an error
Loading. Please wait.

Viper Strike Tab

382 views 42 this week
no commentswrite comment
1 2 3 4 5
1 last vote to show rating
add to favorites
launch autoscroll
font size
0
reset
how to read this tab
guitar tuner
Autoscroll
slow
fast
+/-
esc
set tempo
stop
Help us to improve Ultimate-Guitar.com Take our survey!
×
Author
Difficulty
novice
About this tab version
A full tab of the song, including the intro, verse, chorus, and solo parts. Was this info helpful? Yes No
[Intro & Verse 1] 0:00
e|---------------------------------------------------------------------------|
B|---------------------------------------------------------------------------|
G|---------------------------------------------------------------------------|
D|---------------------------------------------------------------------------| x10
A|--6-6-6-6-6-6-6-7-7-7-7----------------------------------------------------|
E|------------------------8-8-8-8-8------------------------------------------|

[Chorus] 0:37
e|---------------------------------------------------------------------------|
B|---------------------------------------------------------------------------|
G|---------------------------------------------------------------------------|
D|-13---13---13---13---14---14---10--10--------------------------------------| x2
A|-13---13---13---13---14---14---10--10--------------------------------------|
E|-11---11---11---11---12---12---8---8---------------------------------------|

e|---------------------------------------------------------------------------|
B|---------------------------------------------------------------------------|
G|---------------------------------------------------------------------------|
D|-13-13-13-13-13-13-13-14-14-14-14-10-10-10-10-10---------------------------| x2
A|-13-13-13-13-13-13-13-14-14-14-14-10-10-10-10-10---------------------------|
E|-11-11-11-11-11-11-11-12-12-12-12-8--8--8--8--8----------------------------|

e|-----------------------------------------------------------------------------------------|
B|-----------------------------------------------------------------------------------------|
G|-----------------------------------------------------------------------------------------|
D|-6-6-6-6-6-6-6\-3-3-3-3/-13-13-13-13-13--10-10-10-10-10-10-10-10-10-10-10-10-10-10-10-10-|
A|-6-6-6-6-6-6-6\-3-3-3-3/-13-13-13-13-13--10-10-10-10-10-10-10-10-10-10-10-10-10-10-10-10-|
E|-4-4-4-4-4-4-4\-1-1-1-1/-11-11-11-11-11--8--8--8--8--8--8--8--8--8--8--8--8--8--8--8--8--|

e|---------------------------------------------------------------------------|
B|---------------------------------------------------------------------------|
G|---------------------------------------------------------------------------|
D|-6-6-6-6-6-6-6\-3-3-3-3-3-3------------------------------------------------|
A|-6-6-6-6-6-6-6\-3-3-3-3-3-3------------------------------------------------|
E|-4-4-4-4-4-4-4\-1-1-1-1-1-1------------------------------------------------|

[Verse 2] 1:03
e|---------------------------------------------------------------------------|
B|---------------------------------------------------------------------------|
G|---------------------------------------------------------------------------|
D|---------------------------------------------------------------------------| x10
A|--6-6-6-6-6-6-6-7-7-7-7----------------------------------------------------|
E|------------------------8-8-8-8-8------------------------------------------|

[Chorus] 1:41
e|---------------------------------------------------------------------------|
B|---------------------------------------------------------------------------|
G|---------------------------------------------------------------------------|
D|-13---13---13---13---14---14---10--10--------------------------------------| x2
A|-13---13---13---13---14---14---10--10--------------------------------------|
E|-11---11---11---11---12---12---8---8---------------------------------------|

e|---------------------------------------------------------------------------|
B|---------------------------------------------------------------------------|
G|---------------------------------------------------------------------------|
D|-13-13-13-13-13-13-13-14-14-14-14-10-10-10-10-10---------------------------| x2
A|-13-13-13-13-13-13-13-14-14-14-14-10-10-10-10-10---------------------------|
E|-11-11-11-11-11-11-11-12-12-12-12-8--8--8--8--8----------------------------|

e|-----------------------------------------------------------------------------------------|
B|-----------------------------------------------------------------------------------------|
G|-----------------------------------------------------------------------------------------|
D|-6-6-6-6-6-6-6\-3-3-3-3/-13-13-13-13-13--10-10-10-10-10-10-10-10-10-10-10-10-10-10-10-10-|
A|-6-6-6-6-6-6-6\-3-3-3-3/-13-13-13-13-13--10-10-10-10-10-10-10-10-10-10-10-10-10-10-10-10-|
E|-4-4-4-4-4-4-4\-1-1-1-1/-11-11-11-11-11--8--8--8--8--8--8--8--8--8--8--8--8--8--8--8--8--|

e|---------------------------------------------------------------------------|
B|---------------------------------------------------------------------------|
G|---------------------------------------------------------------------------|
D|-6-6-6-6-6-6-6\-3-3-3-3-3-3------------------------------------------------|
A|-6-6-6-6-6-6-6\-3-3-3-3-3-3------------------------------------------------|
E|-4-4-4-4-4-4-4\-1-1-1-1-1-1------------------------------------------------|


[Solo w/effects pedals - possibly Reverb & Wah]
2:07
e|----------------------------18tr--17tr--15tr-13tr---18tr--17tr--15tr-13tr--|
B|------------9--------------------------------------------------------------|
G|-9----------11pbr----------------------------------------------------------|
D|---------------------------------------------------------------------------|
A|---------------------------------------------------------------------------|
E|---------------------------------------------------------------------------|

2:32
e|--15v------15--------------------------------------------------------------|
B|-------11----11--14sb------------------------------------------------------|
G|---------------------------------------------------------------------------|
D|---------------------------------------------------------------------------|
A|---------------------------------------------------------------------------|
E|---------------------------------------------------------------------------|

[Chorus] 2:36
e|---------------------------------------------------------------------------|
B|---------------------------------------------------------------------------|
G|---------------------------------------------------------------------------|
D|-13---13---13---13---14---14---10--10--------------------------------------| x2
A|-13---13---13---13---14---14---10--10--------------------------------------|
E|-11---11---11---11---12---12---8---8---------------------------------------|

e|---------------------------------------------------------------------------|
B|---------------------------------------------------------------------------|
G|---------------------------------------------------------------------------|
D|-13-13-13-13-13-13-13-14-14-14-14-10-10-10-10-10---------------------------| x2
A|-13-13-13-13-13-13-13-14-14-14-14-10-10-10-10-10---------------------------|
E|-11-11-11-11-11-11-11-12-12-12-12-8--8--8--8--8----------------------------|

e|-----------------------------------------------------------------------------------------|
B|-----------------------------------------------------------------------------------------|
G|-----------------------------------------------------------------------------------------|
D|-6-6-6-6-6-6-6\-3-3-3-3/-13-13-13-13-13--10-10-10-10-10-10-10-10-10-10-10-10-10-10-10-10-| x3
A|-6-6-6-6-6-6-6\-3-3-3-3/-13-13-13-13-13--10-10-10-10-10-10-10-10-10-10-10-10-10-10-10-10-|
E|-4-4-4-4-4-4-4\-1-1-1-1/-11-11-11-11-11--8--8--8--8--8--8--8--8--8--8--8--8--8--8--8--8--|

e|---------------------------------------------------------------------------|
B|---------------------------------------------------------------------------|
G|---------------------------------------------------------------------------|
D|-6-6-6-6-6-6-6\-3-3-3-3-3-3------------------------------------------------|
A|-6-6-6-6-6-6-6\-3-3-3-3-3-3------------------------------------------------|
E|-4-4-4-4-4-4-4\-1-1-1-1-1-1------------------------------------------------|


************************************

| b   Bend
| sb  Slow-bend
| br  Bend release
| pbr Pre-bend release
| /   Slide up
| \   Slide down
| v   Vibrato
| PM  Palm mute
| tr   Tremolo

************************************
Suggest correction
Give kudos to tab author, rate the tab!
1 2 3 4 5
comments
print report bad tab
guest
You may want to rate the tab now too:
select rating
Wanna post a correction for this tab? Suggest correction