Oops, an error
Loading. Please wait.

Wolf Tab

844 views 231 this week
no commentswrite comment
1 2 3 4 5
x 4
add to favorites
launch autoscroll
font size
0
reset
how to read this tab
guitar tuner
Autoscroll
slow
fast
+/-
esc
set tempo
stop
Help us to improve Ultimate-Guitar.com Take our survey!
×
Author
Difficulty
Tuning
intermediate
E A D G B E
About this tab version
First Wolf tab there is, the first one Ive ever done. Didn't write down the whole middle part before the ending and solo but the song reuses parts and its not too difficult to figure out. Was this info helpful? Yes No
This is my first tab ever, so feel free to contribute or make changes. I believe Johnny uses his fingers
for the intro.
Dedicating this to my OG homeboy Mfurevik. Wolf is a fitting first song to learn on your first guitar.

[Intro]
Em (x16)                   C(x16)              G(x32)         G to Em on the last one
e|-7----7----7----7--|--8----8----8----8--|--7----7----7----7--|--7-------------|
B|-8----8----8----8--|--8----8----8----8--|--8----8----8----8--|--8-------------|
G|---9----9----9----9|----9----9----9----9|----7----7----7----7|---7h9----------|
D|-------------------|--------------------|--------------------|----------------|
A|-------------------|--------------------|--------------------|----------------|
E|-------------------|--------------------|--------------------|----------------|

You think you know me, I wish I did too
Em (x16)                   C(x16)              G(x32)         G to Em on the last one
e|-7----7----7----7--|--8----8----8----8--|--7----7----7----7--|--7-------------|
B|-8----8----8----8--|--8----8----8----8--|--8----8----8----8--|--8-------------|
G|---9----9----9----9|----9----9----9----9|----7----7----7----7|---7h9----------|
D|-------------------|--------------------|--------------------|----------------|
A|-------------------|--------------------|--------------------|----------------|
E|-------------------|--------------------|--------------------|----------------|

Cause everythings changing, and I am changing too
Em (x16)                   C(x16)              G(x32)         G to Em on the last one
e|-7----7----7----7--|--8----8----8----8--|--7----7----7----7--|--7-------------|
B|-8----8----8----8--|--8----8----8----8--|--8----8----8----8--|--8-------------|
G|---9----9----9----9|----9----9----9----9|----7----7----7----7|---7h9----------|
D|-------------------|--------------------|--------------------|----------------|
A|-------------------|--------------------|--------------------|----------------|
E|-------------------|--------------------|--------------------|----------------|

Its not a question
 G5 A5 B5 E5
e|---------------------------------------------------------------------------|
B|---------------------------------------------------------------------------|
G|---------------------------------------------------------------------------|
D|---------------------------------------------------------------------------|
A|-5-7-9-2 (let ring)--------------------------------------------------------|
E|-3-5-7-0 (let ring)--------------------------------------------------------|


          This shit is real               And its hard to look back
Em (x8)                   C(x8?)              G(x8)               G/C x8
e|-7----7----7----7--|--8----8----8----8--|--7----7----7----7--|--8------------|
B|-8----8----8----8--|--8----8----8----8--|--8----8----8----8--|--8-------------|
G|---9----9----9----9|----9----9----9----9|----7----7----7----7|----7---------|
D|-------------------|--------------------|--------------------|----------------|
A|-------------------|--------------------|--------------------|----------------|
E|-------------------|--------------------|--------------------|----------------|
   

But its harder to move on
    Em D D? (unsure, maybe its the bass only playing this)
e|---------------------------------------------------------------------------|
B|---------------------------------------------------------------------------|
G|---------------------------------------------------------------------------|
D|---------------------------------------------------------------------------|
A|--14-12-12-----------------------------------------------------------------|
E|--12-10-10-----------------------------------------------------------------|

   Yeah funny, its a good time for a timeless song
    Bm A G            C(x10 maybe, a bit unclear)
e|--------------------7---------------------------------------------------|
B|--------------------8---------------------------------------------------|
G|---------------------9--------------------------------------------------|
D|------------------------------------------------------------------------|
A|--9-7-5-----------------------------------------------------------------|
E|--7-5-3-----------------------------------------------------------------|



  I gave you my heart, I gave you my soul
  C(x16)- Sounds like Johnny plays an open E string on the 1 beat or slides down to a B
e|---------------------------------------------------------------------------|
B|---------------------------------------------------------------------------|
G|9--------------------------------------------------------------------------|
D|10-------------------------------------------------------------------------|
A|10-------------------------------------------------------------------------|
E|8--------------------------------------------------------------------------|

Yeah cause baby I was born to rock and now I gotta roll
  E5 G5 A5   C
e|---------------------------------------------------------------------------|
B|---------------------------------------------------------------------------|
G|-----------9---------------------------------------------------------------|
D|-----------10--------------------------------------------------------------|
A|2-5-7-9----10--------------------------------------------------------------|
E|0-3-5-7----8---------------------------------------------------------------|


  Im moving on, I gotta let go
  C(x16)- Sounds like Johnny plays an open E string on the 1 beat or slides down to a B
e|---------------------------------------------------------------------------|
B|---------------------------------------------------------------------------|
G|9--------------------------------------------------------------------------|
D|10-------------------------------------------------------------------------|
A|10-------------------------------------------------------------------------|
E|8--------------------------------------------------------------------------|

Yeah cause baby I was born to rock and now I gotta roll
  E5 G5 A5   C
e|---------------------------------------------------------------------------|
B|---------------------------------------------------------------------------|
G|-----------9---------------------------------------------------------------|
D|-----------10--------------------------------------------------------------|
A|2-5-7-9----10--------------------------------------------------------------|
E|0-3-5-7----8---------------------------------------------------------------|


Middle bit

e|-----------------|----------------------------------------------------------|
B|-----------------|----------------------------------------------------------|
G|-----------------|-----7-7-7-7-5-5-5-5-4-4-4-4-4-4-4-4----------------------|
D|-----------------|----------------------------------------------------------|
A|---3s5h7p5-------|----------------------------------------------------------|
E|3h5-------7s3-0--|----------------------------------------------------------|


e|---------------------------------------------------------------------------|
B|---------------------------------------------------------------------------|
G|7-7-7-7-5-5-5-5-4-4-4-4-4-4-4-4--------------------------------------------|
D|---------------------------------------------------------------------------|
A|---------------------------------------------------------------------------|
E|---------------------------------------------------------------------------|

      No one pretends the way I do
e|---------------------------------------------------------------------------|
B|---------------------------------------------------------------------------|
G|7-7-7-7-5-5-5-5-4-4-4-4-4-4-4-4--------------------------------------------|
D|---------------------------------------------------------------------------|
A|---------------------------------------------------------------------------|
E|---------------------------------------------------------------------------|

Guess its so hard to hear the truth/dream(?)

e|---------------------------------------------------------------------------|
B|---------------------------------------------------------------------------|
G|7-7-7-7-5-5-5-5-4-4-4-4-4-4-4-4--------------------------------------------|
D|---------------------------------------------------------------------------|
A|---------------------------------------------------------------------------|
E|---------------------------------------------------------------------------|

You got your reasons, so do I

e|---------------------------------------------------------------------------|
B|---------------------------------------------------------------------------|
G|7-7-7-7-5-5-5-5-4-4-4-4-4-4-4-4--------------------------------------------|
D|---------------------------------------------------------------------------|
A|---------------------------------------------------------------------------|
E|---------------------------------------------------------------------------|

I like to dreams cause dreams dont lie

e|---------------------------------------------------------------------------|
B|---------------------------------------------------------------------------|
G|7-7-7-7-5-5-5-5-4-4-4-4-4-4-4-4--------------------------------------------|
D|---------------------------------------------------------------------------|
A|---------------------------------------------------------------------------|
E|---------------------------------------------------------------------------|

 G5 A5 B5 C
e|---------------------------------------------------------------------------|
B|---------------------------------------------------------------------------|
G|-------9-------------------------------------------------------------------|
D|-------10------------------------------------------------------------------|
A|5-7-9--10------------------------------------------------------------------|
E|3-5-7--8-------------------------------------------------------------------|

[Chorus]
I'll play along, like nothings wrong, baby I love you, but the moon/mood is 
  C (x32)(slide down to B or play open E string with the C chord on the 1 beat)
e|---------------------------------------------------------------------------|
B|---------------------------------------------------------------------------|
G|9--------------------------------------------------------------------------|
D|10-------------------------------------------------------------------------|
A|10-------------------------------------------------------------------------|
E|8--------------------------------------------------------------------------|

             Blue 
 G5 A5 B5 C
e|-----------------|----------------------------------------------------------|
B|-----------------|----------------------------------------------------------|
G|-----------------|-----7-7-7-7-5-5-5-5-4-4-4-4-4-4-4-4----------------------|
D|-----------------|----------------------------------------------------------|
A|---3s5h7p5-------|----------------------------------------------------------|
E|3h5-------7s3-0--|----------------------------------------------------------|

e|---------------------------------------------------------------------------|
B|---------------------------------------------------------------------------|
G|7-7-7-7-5-5-5-5-4-4-4-4-4-4-4-4--------------------------------------------|
D|---------------------------------------------------------------------------|
A|---------------------------------------------------------------------------|
E|---------------------------------------------------------------------------|
     Do you remember where we are?
e|---------------------------------------------------------------------------|
B|---------------------------------------------------------------------------|
G|7-7-7-7-5-5-5-5-4-4-4-4-4-4-4-4--------------------------------------------|
D|---------------------------------------------------------------------------|
A|---------------------------------------------------------------------------|
E|---------------------------------------------------------------------------|
   Imagination filled our love
e|---------------------------------------------------------------------------|
B|---------------------------------------------------------------------------|
G|7-7-7-7-5-5-5-5-4-4-4-4-4-4-4-4--------------------------------------------|
D|---------------------------------------------------------------------------|
A|---------------------------------------------------------------------------|
E|---------------------------------------------------------------------------|
   Wolf dont make a helpless move
e|---------------------------------------------------------------------------|
B|---------------------------------------------------------------------------|
G|7-7-7-7-5-5-5-5-4-4-4-4-4-4-4-4--------------------------------------------|
D|---------------------------------------------------------------------------|
A|---------------------------------------------------------------------------|
E|---------------------------------------------------------------------------|

   You see me, and I see you. 
e|---------------------------------------------------------------------------|
B|---------------------------------------------------------------------------|
G|7-7-7-7-5-5-5-5-4-4-4-4-4-4-4-4--------------------------------------------|
D|---------------------------------------------------------------------------|
A|---------------------------------------------------------------------------|
E|---------------------------------------------------------------------------|


 G5 A5 B5 C
e|---------------------------------------------------------------------------|
B|---------------------------------------------------------------------------|
G|-------9-------------------------------------------------------------------|
D|-------10------------------------------------------------------------------|
A|5-7-9--10------------------------------------------------------------------|
E|3-5-7--8-------------------------------------------------------------------|

So play along, like nothings wrong. Baby I love you, but the moon/mood is blue.  
  C (x32)(slide down to B or play open E string with the C chord on the 1 beat)
e|---------------------------------------------------------------------------|
B|---------------------------------------------------------------------------|
G|9--------------------------------------------------------------------------|
D|10-------------------------------------------------------------------------|
A|10-------------------------------------------------------------------------|
E|8--------------------------------------------------------------------------|


Lets play along, oh still Im gone. Is it in my head? Sometimes I wish that I was. 
  C (x32)(slide down to B or play open E string with the C chord on the 1 beat)
e|---------------------------------------------------------------------------|
B|---------------------------------------------------------------------------|
G|9--------------------------------------------------------------------------|
D|10-------------------------------------------------------------------------|
A|10-------------------------------------------------------------------------|
E|8--------------------------------------------------------------------------|

[Outro]
Outro/ending riff. There are some small nuances here, but this is somewhat reminiscent of what he's doing.
e|---------------------------------------|---------------------------------------|
B|---------------------------------------|---------------------------------------|
G|---------------------------------------|---------------------------------------|
D|---------------------------------------|---------------------------------------|
A|---------------------------------------|---------------------------------------|
E|0-10-12-0-10-12-0-9-12-0-9-12-0-9-12---|0-8-12-0-8-12-0-7-12-0-7-12-0-7-12-----|



Then this is repeated over the dreamy frusciante esque solo. The waking up part at the is
probably played with a lot of delay and an octave pedal set at +1.


************************************

| x   Dead note
| g   Grace note
| (n) Ghost note
| h   Hammer-on
| p   Pull-off
| r   Release
| >   Accented note
| t   Tapping
| b   Bend
| br  Bend release
| pb  Pre-bend
| pbr Pre-bend release
| /   Slide up
| \   Slide down
| ~   Vibrato
| s   Slap
| P   Pop
| PM  Palm mute
| TR  Trill
| N   Tremolo

************************************
Suggest correction
comments
print report bad tab
guest
You may want to rate the tab now too:
select rating
Wanna post a correction for this tab? Suggest correction