Oops, an error
Loading. Please wait.

Closer tab

133 views 12 this week
no commentswrite comment
1 2 3 4 5
2 more votes to show rating
add to favorites
×
Save as Personal and add changes to this tab that will be seen only by you. Learn more ›
×
You can save this tab as Personal to edit and correct it or add notes. All changes will be seen only by you. Learn more »
launch autoscroll
font size
0
reset
how to read this tab
guitar tuner
edit
Autoscroll
slow
fast
+/-
esc
set tempo
stop
Author
Difficulty
Artist: Hightide Hotel (R.I.P.)
Title: Closer
Tuning:  Standard. U can down-tune to sing along to match ur voice if u have 2
Instructional video: https://www.youtube.com/watch?v=d8Gl8IMu3Nc
Tabbed by: Philip Tebby. email: capn.jazz@hotmail.com

- This is not a 100% accurate tab, but its pretty close imo.
- Please comment/email me with corrections.
- If you know how to play She Dreams Of Melting Rocks or Ultimatum, please post the tab!!!


*Harmonics*
e- ------------------------------------|
B- -12---------------------------------|
G- ------12----------------------------| 
D- ------------------------------------|
A- ------------------------------------|
E- ------------------------------------|

e- ------------------------------------|
B- ----3p0----------3p0----------------|
G- ---0---0h2p0----0---0h2/4-----------| 
D- --0------------0--------------------|
A- -3------------3---------------------|
E- ------------------------------------|

e- ------------------------------------|
B- ----0--------0--0-------------------|
G- ---0-0------0-0--0------------------| 
D- --4---4-4--4---4--------------------|
A- -5-----5--5-------------------------|
E- ------------------------------------|


"And it was faint..."/"And I was calm...." 

e- ------------------------------------|
B- ----0--------0----------------------|
G- ---0-0------0-0---------------------|
D- --4---4-4--4---4-4------------------|
A- -7-----7--7-----7-------------------|
E- ------------------------------------|


"Oh what a voice..."/"Oh what a sound....":

e- -0---0---0---0---0---0---0-----------------|
B- -3---0---3---5---3---0---0-----------------|
G- -0---0---0---0---0---0---0-----------------| 
D- -0---0---0---0---0---0---0-----------------|
A- -3---2---3---------------2-----------------|
E- -------------------------------------------|


"And it resonates..."

e- -3---2---3---2---3---2---3---2-|
B- -3---3---3---3---3---3---3---3-|
G- -0---0---0---0---0---0---0---0-| 
D- -0---0---0---0---0---0---0---0-|
A- -3---3---3---3---2---2---2---2-|
E- -------------------------------|


Outro:

e- -------|
B- -------|
G- ---0---| 
D- -------|
A- -------|
E- -------|


e- -----------0-----0---------0---------------0---------------0--------------|
B- ---------3---3-----0-----3---3-----------3---3-----3-----3---3------------|
G- -------0-------0-------0-------0-------0-------0-------0-------0---0------| 
D- --------------------------------------------------------------------------| (Repeat)
A- -----3---------------3-----------3-2-----------------------------2--------|
E- -------------------------------------0-----------0---0--------------------|


Lyrics:

In morning's first light on still folded sheets
After the sorriest excuse for a good night's sleep
We laid for hours that stretched into weeks
And after each pause, we traded thoughts and you'd softly speak
And it was faint, but I still made it out
All my own doubts falling out of another person's mouth

Oh, what a voice, oh, what a voice
How I did rejoice

In your parents' house, in your childhood bed
I watched the rise and fall of your ribcage with every breath
Making a makeshift space for me to rest my heavy head
And in that place, in those quiet days, I could hear it best
And I was calm, somehow while so distressed
When I heard my own heart beating in another person's chest

Oh, what a sound, oh, what a sound
Oh, I felt so found

And it resonates
Rolls 'round my skull and all around and throughout my brain
And I squirm, I twist and shake
As it courses its way through each and every vein
And it reverberates throughout my vertebrae
Oh, what a sound, oh, how I did shake
Almost restoring my long lost and fleeting faith in fate

I gave our love a sound
I passed the word around  

            
            
Suggest correction
Creating personal tab
Creating personal tab
You can edit any tab online and save it as your Personal.

You can edit, replace or remove any tab part or add personal notes – all changes will be seen only by you.

Personal tabs can be accessed anytime from any device, even offline.
Learn more »
Give kudos to tab author, rate the tab!
1 2 3 4 5
comments
print report bad tab
guest
You may want to rate the tab now too:
select rating
Wanna post a correction for this tab? Suggest correction