Oops, an error
Loading. Please wait.

Porch Luck tab

version 1
version 1

Whole song

1,982 views 1 this week
2 commentsread comments
1 2 3 4 5
2 more votes to show rating
add to favorites
×
Save as Personal and add changes to this tab that will be seen only by you. Learn more ›
×
You can save this tab as Personal to edit and correct it or add notes. All changes will be seen only by you. Learn more »
launch autoscroll
font size
0
reset
how to read this tab
guitar tuner
edit
Autoscroll
slow
fast
+/-
esc
set tempo
stop
Author
Difficulty
Hightide Hotel (RIP)
Porch Luck
2008
Tuning: Standard (EADGBe)

-Intro/Verse-

"I was sitting on the lawn..."
e- -----0-------2-------0-------2-----------------------|
B- ---3---3---3---3---3---3---3---3---------------------|
G- -4-------2-------0-------0---------------------------|  x4
D- -----------------------------------------------------|
A- -----------------------------------------------------|
E- -----------------------------------------------------|


"It didn't help at all..."
e- -----0-------2-------0----2---0----------------------|
B- ---3---3---3---3---3---3----3---3--------------------|
G- -4-------2-------0-----------------------------------|  x4
D- -----------------------------------------------------|
A- -----------------------------------------------------|
E- -----------------------------------------------------|


-Verse-

"The bed quakes with my weight..."
e- -----------------------------------------------------|
B- ---------------0-------------------------------------|
G- -----2-------2-------2-------2-----------------------|
D- ---0---0---0-------0---0---0---0---------------------|  x4
A- -----------------2-------0---------------------------|
E- -3-------3-------------------------------------------|


"...the way that I do."
e- -----2-------2-------0-------0-------2-------2---0---|
B- ---3---3---3---3---3---3---3---3---3---3---3---3-3---|
G- -4-------2-------0-------0-------4-------2-------0---|
D- -------------------------------------------------0---|
A- -----------------------------------------------------|
E- -----------------------------------------------------|

Ending chords (Full credit to user hairguitar for these):
e|--2--2-2-2-2-2---------------0-0-0-0-0-0--0-0-0-0-0-0--2-2-2-0-0-0-2-2-2-2-0-0-0---|
B|--3--3-3-3-3-3--3-3-3-3-3-3--3-3-3-3-3-3--3-3-3-3-3-3--3-3-3-3-3-3-3-3-3-3-3-3-3---|
G|--0--0-0-0-0-0--2-2-2-2-2-2--4-4-4-4-4-4--4-4-4-4-4-4--4-4-4-4-4-4-4-4-4-4-4-4-4---|
D|--4--4-4-4-4-4--0-0-0-0-0-0--0-0-0-0-0-0--2-2-2-2-2-2--0-0-0-0-0-0-0-0-0-0-0-0-0---|
A|----------------0-0-0-0-0-0--2-2-2-2-2-2--0-0-0-0-0-0------------------------------|
E|--3--3-3-3-3-3-----------------------------------------3-3-3-3-3-3-3-3-3-3-3-3-3---|

Then: (Credit to hairguitar again)
e|--------------------------------------|
B|----------------------------------0---|
G|------2-----------------2-------2-----|
D|----0---0---0---------0---0---0-------| x a lot
A|--------------------------------------|
E|--3-------3---3--2--0-------2---------|


Lyrics:
I was sitting on the lawn with a wide-eye to the sun like a dead fish in a big pond.
And as I gasped for air, I wondered where you were through the water and the murky dirt.

It didn't help at all that I'm the one you called.
It doesn't help me like I know it helps you.
Just wait, someday soon we'll be buried in the same tomb, the earth will cover us like a bruise.

The bed quakes with my weight.
The bed doesn't know that you're gone.
The bed is lucky it doesn't know you the way that I do.

And I don't want you to answer my next call.
It would just upset you.

And I won't, I won't.
And I don't, I don't.


I'll stay up all night again, all night again.

            
            
Suggest correction
Creating personal tab
Creating personal tab
You can edit any tab online and save it as your Personal.

You can edit, replace or remove any tab part or add personal notes – all changes will be seen only by you.

Personal tabs can be accessed anytime from any device, even offline.
Learn more »
Give kudos to tab author, rate the tab!
1 2 3 4 5
comments
print report bad tab
2 comments total.
0 reply
Danowa 572 Oct 19, 2013 03:03 PM

e- -----0-------2-------0-------0-----------------------|
B- ---3---3---3---3---3---3---3---3---------------------|
G- -4-------2-------0-------0---------------------------|
D- -----------------------------------------------------|
A- -----------------------------------------------------|
E- -----------------------------------------------------|

I believe the beginning might be with an open e instead of the second fret. Very minor. Thank you for taking your time and putting the tab up. You made my life that much easier.

0 reply
Phillystake 180 Aug 10, 2016 07:29 PM

You're right, thanks!

guest
You may want to rate the tab now too:
select rating
Wanna post a correction for this tab? Suggest correction