Oops, an error
Loading. Please wait.

Held Together By Knives Bass Tab

42 views 1 this week
no commentswrite comment
1 2 3 4 5
please rate
add to favorites
launch autoscroll
font size
0
reset
guitar tuner
Tab Pro tools
  • play this tab
  • loop segment
  • change instrument
  • show fretboard
  • metronome
Autoscroll
slow
fast
+/-
esc
set tempo
stop
Contributor
Difficulty
Tuning
intermediate
D A D G B E
Highway Alaska - Held Together by Knives

http://www.highwayalaska.com
http://www.facebook.com/highwayalaska
http://www.twitter.com/highwayalaska

Copyright © Highway Alaska / Rust Records 2012

-----------------------------------------------------

Drop D Tuning

/ = Slide to Fret #
~ = Let note Ring

-----------------------------------------------------

Intro Riff:

G|--------------------------------------------------|
D|--------------------------------------------------|
A|------------------------------------2--2-0-2--/5--|
D|---/5555555555555555----77777777------------------|

G|--------------------------------------------------|
D|----------------------------------------2-4-2-----|
A|------------------------------------2-5-------5-2-|
D|----5~-5555555555555----7~-77777------------------|

G|--------------------------------------------------|
D|--------------------------------------------------|
A|------------------------------------2--2-0-2--/5--|
D|----5~-55-5-5-5-5-55----7~-77-7-7-----------------|

G|--------------------------------------------------|
D|----------------------------------------2-4-2-----|
A|------------------------------------2-5-------5-2-|
D|----5~-55-5-5-5-5-55----7~-77-7-7-----------------|

G|-----------------------|
D|-----------------------|
A|-----------------------|
D|----0~~~~~~~~~~~~~~----|

Verse 1:

G|--------------------------------------------------|
D|----------------7---9----0------------------------|
A|----5~---------------------7~-------2~------------|
D|--------------------------------------------------|

G|--------------------------------------------------|
D|----------------7---9----0----------4--5---7-4----|
A|----5~---------------------7~---------------------|
D|--------------------------------------------------|

G|--------------------------------------------------|
D|----------------777-9999-0----------444-55-7-5-4--|
A|----55555555---------------77777777---------------|
D|--------------------------------------------------|

G|--------------------------------------------------|
D|----------------777-9999-0----------444-55-7-5-4--|
A|----55555555---------------77777777---------------|
D|--------------------------------------------------|

Chorus 1:

G|--------------------------------------------------|
D|--------0~------0~--------------------------------|
A|----2~------2~------------------------------------|
D|-------------------------55555555-----222222------|

G|--------------------------------------------------|
D|--------0~------0~--------------------------------|
A|----2~------2~------------------------7-7-7-7-----|
D|-------------------------55555555-----------------|

Verse 2:

G|--------------------------------------------------|
D|----------------7---9----0------------------------|
A|----5~---------------------7~-------2~------------|
D|--------------------------------------------------|

G|--------------------------------------------------|
D|----------------7---9----0----------4--5---7-4----|
A|----5~---------------------7~---------------------|
D|--------------------------------------------------|

G|--------------------------------------------------|
D|----------------777-9999-0----------444-55-7-5-4--|
A|----55555555---------------77777777---------------|
D|--------------------------------------------------|

G|--------------------------------------------------|
D|----------------777-9999-0----------444-55-7-5-4--|
A|----55555555---------------77777777---------------|
D|--------------------------------------------------|

Chorus 2:

G|--------------------------------------------------|
D|--------0~------0~--------------------------------|
A|----2~------2~------------------------------------|
D|-------------------------55555555-----222222------|

G|--------------------------------------------------|
D|--------0~------0~--------------------------------|
A|----2~------2~------------------------7-7-7-7-----|
D|-------------------------55555555-----------------|

G|--------------------------------------------------|
D|--------0~------0~--------------------------------|
A|----2~------2~------------------------------------|
D|-------------------------55555555-----222222------|

G|--------------------------------------------------|
D|--------0~------0~--------------------------------|
A|----2~------2~------------------------7-7-7-7-----|
D|-------------------------55555555-----------------|

Intro Riff:

G|--------------------------------------------------|
D|--------------------------------------------------|
A|------------------------------------2--2-0-2--/5--|
D|---/5555555555555555----77777777------------------|

G|--------------------------------------------------|
D|----------------------------------------2-4-2-----|
A|------------------------------------2-5-------5-2-|
D|----5~-5555555555555----7~-77777------------------|

G|--------------------------------------------------|
D|--------------------------------------------------|
A|------------------------------------2--2-0-2--/5--|
D|----5~-55-5-5-5-5-55----7~-77-7-7-----------------|

G|--------------------------------------------------|
D|----------------------------------------2-4-2-----|
A|------------------------------------2-5-------5-2-|
D|----5~-55-5-5-5-5-55----7~-77-7-7-----------------|

G|-----------------------|
D|-----------------------|
A|-----------------------|
D|----0~~~~~~~~~~~~~~----|


Chorus 3:

G|--------------------------------------------------|
D|--------0~------0~--------------------------------|
A|----2~------2~------------------------------------|
D|-------------------------5-5-5-5------222222------|

G|--------------------------------------------------|
D|--------0~------0~--------------------------------|
A|----2~------2~------------------------------------|
D|-------------------------5-5-5-5------------------|

G|--------------------------------------------------|
D|--------------------------------------------------|
A|--------------------------------------------------|
D|---/9~--0~--/9~--0~------55555555-----222222------|

G|--------------------------------------------------|
D|--------------------------------------------------|
A|--------------------------------------7-7-7-7-----|
D|---/9~--0~--/9~--0~------55555555-----------------|
comments
We did not receive enough feedback on this tab! Please rate:
print report bad tab
1 2 3 4 5
I want to post or [tab]
guest
You may want to rate the tab now too:
select rating
Please do not post tabs as comments. Select "correction" instead!