Oops, an error
Loading. Please wait.

La Noche Que Me Diste tab

version 3
version 3

Whole song

17 views 3 this week
no commentswrite comment
1 2 3 4 5
3 more votes to show rating
add to favorites
×
Save as Personal and add changes to this tab that will be seen only by you. Learn more ›
×
You can save this tab as Personal to edit and correct it or add notes. All changes will be seen only by you. Learn more »
launch autoscroll
font size
0
reset
how to read this tab
guitar tuner
edit
Autoscroll
slow
fast
+/-
esc
set tempo
stop
INTRO: RE - FA - MI

Riff:
              x3
e|-------------|----------4-5-4---------
B|-------------|------5-6------6-5-4-0--
G|-7-5-4-5-4-2-|-----------------------2
D|-------------|-3-2--------------------
A|-------------|------------------------
E|-------------|------------------------


REm -LAm - REm - LAm - FAmaj7 - MI


LAm           REm
   Ahora que estas con el,
LAm                 REm
   convencida de ya no volver
LAm                     REm
   quiero hablar no quiero pelear
LAm                  REm
   soy ceniza de tus besos


SOL                          DO
   y es que estuve mucho tiempo preso
SOL                           DO
   refugiado en la oscuridad de mi nariz

e------
B------
D------
G------
A------
E-3--2-

       MI          LAm
   no puedo comprender
   FA                      MI
porque te vas asi dejandome


REm - LAm - REm - LAm - REm - FAmaj7 - MI


LAm
La noche que me diste
que no quiero, que no puedo
          REm
y que tome de mas.
    SOL
mi corazon estalla
por las cosas que decias
          DO
que me hicieron mal.
MI              LAm
no puedo comprender
   FA
porque te vas asi
        MI
dejandome.

LAm                 REm
   estoy cansado de tus mentiras
LAm                  REm
   es que esta noche nos delira
LAm              REm
   si esto te parece poco
LAm                       REm
   tengo palabras que se toman en polvo

SOL                                 DO
  es que se que me estuve portando muy mal
SOL                           DO
  no es excusa para abrir las piernas no, mi amor

e------
B------
D------
G------
A------
E-3--2-

    MI          LAm      FA
  no puedo comprender porque te vas asi
        MI
  dejandome

BASE DEL SOLO: Lam - Rem - Sol - Do - Sol5 - Fa# - Mim - Lam - Fa - Mi
SOLO:
e|-------------------------------------5-8h5---------------
B|--10h8-10~---------------------------6-------------------
G|------------9-10-12-10-9-10h9--------7------9h10h9-7-9---
D|-----------------------------12-12-----------------------
A|---------------------------------------------------------
E|---------------------------------------------------------

e|------------------------------------10-------------------
B|--10s12-12-12-10-8-10h8-8---------10v-10-10-8-10-10-10--
G|---------------------------------------------------------
D|---------------------------------------------------------
A|---------------------------------------------------------
E|---------------------------3-2-0-------------------------

e|----------------15-13-12-12h13h12--10-12-10--------------
B|----------15-17----------------------------13-12h13h12---
G|--14-16-17-----------------------------------------------
D|---------------------------------------------------------
A|---------------------------------------------------------
E|---------------------------------------------------------


e|-----------------------------------4-5-4------------------
B|--10-12-10--10------------------5-6-----6-5---------------
G|----------12--12-10-12-10-9-9-----------------------------
D|----------------------------------------------------------
A|----------------------------------------------------------
E|----------------------------------------------------------

LAm
La noche que me diste
que no quiero, que no puedo
          REm
y que tome de mas.
    SOL7
mi corazon estalla
por las cosas que decias
          DO
que me hicieron mal.
MI              LAm
no puedo comprender
   FAmaj7
porque te vas asi
        MI
dejandome.


cualquier duda saaan@

            
            
Suggest correction
Creating personal tab
Creating personal tab
You can edit any tab online and save it as your Personal.

You can edit, replace or remove any tab part or add personal notes – all changes will be seen only by you.

Personal tabs can be accessed anytime from any device, even offline.
Learn more »
Give kudos to tab author, rate the tab!
1 2 3 4 5
comments
print report bad tab
guest
Wanna post a correction for this tab? Suggest correction