Oops, an error
Loading. Please wait.

Beautiful World bass

2,830 views 1 this week
no commentswrite comment
1 2 3 4 5
1 last vote to show rating
add to favorites
×
Save as Personal and add changes to this tab that will be seen only by you. Learn more ›
×
You can save this tab as Personal to edit and correct it or add notes. All changes will be seen only by you. Learn more »
launch autoscroll
font size
0
reset
guitar tuner
edit
Autoscroll
slow
fast
+/-
esc
set tempo
stop
Difficulty
May not be 100% accurate but been verified in overdub.
feel free to modify if you can grasp it better



                    Beautiful World                                 
                      Utada Hikaru



      W                   W                   W                 
G||--------------------|-------------------|-------------------|
D||*-------------------|-------------------|-------------------|
A||*-------------------|-------------------|-------------------|
E||--------------------|-------------------|-------------------|


  W                     Q    Q    Q    Q       Q    Q    Q    Q     
--------------------||----------------------|----------------------|
-------------------*||----------------------|----------------------|
-------------------*||--5----5--------------|------------3----3----|
--------------------||------------6----6----|--3----3--------------|


  Q    Q    Q    Q       Q    Q    Q    Q       Q    Q    Q    Q     
----------------------|----------------------|----------------------|
----------------------|----------------------|----------------------|
--5----5--------------|------------3----3----|--5----5--------------|
------------6----6----|--3----3--------------|------------6----6----|


  Q    Q    Q    Q       Q    Q    Q    Q       Q    Q    Q    Q     
----------------------|----------------------|----------------------|
----------------------|----------------------|----------------------|
------------3----3----|--5----5--------------|--3----3----3----3----|
--3----3--------------|------------6----6----|----------------------|


  Q    Q    Q    Q       Q    Q    Q    Q       Q    Q    Q    Q     
----------------------|----------------------|----------------------|
----------------------|----------------------|----------------------|
--5----5--------------|------------3----3----|--5----5--------------|
------------6----6----|--3----3--------------|------------6----6----|


  Q    Q    Q    Q       Q    Q    Q    Q       Q    Q    Q    Q     
----------------------|----------------------|----------------------|
----------------------|----------------------|----------------------|
--3----3----3----3----|--5----5--------------|------------3----3----|
----------------------|------------6----6----|--3----3--------------|


  Q    Q    Q    Q       Q    Q    Q    Q       Q    Q    Q    Q     
----------------------|----------------------|----------------------|
----------------------|----------------------|----------------------|
--5----5--------------|--3----3----3----3----|--5----5--------------|
------------6----6----|----------------------|------------6----6----|


  Q    Q    Q    Q       Q    Q    Q    Q       Q    Q    Q    Q     
----------------------|----------------------|----------------------|
----------------------|----------------------|----------------------|
------------3----3----|--5----5--------------|--3----3----3----3----|
--3----3--------------|------------6----6----|----------------------|


  W                   W                   W                   W                 
-------------------|-------------------|-------------------|-------------------|
-------------------|-------------------|-------------------|-------------------|
--3----------------|--2----------------|-------------------|-------------------|
-------------------|-------------------|--3----------------|--5----------------|


  W                   W                   W                   W                 
-------------------|-------------------|-------------------|-------------------|
-------------------|-------------------|-------------------|-------------------|
--3----------------|--2----------------|-------------------|-------------------|
-------------------|-------------------|--3----------------|--5----------------|


  W                   W                   W                   W                 
-------------------|-------------------|-------------------|-------------------|
-------------------|-------------------|-------------------|-------------------|
--3----------------|--2----------------|-------------------|-------------------|
-------------------|-------------------|--3----------------|--5----------------|


  W                   W                   W                   W                 
-------------------|-------------------|-------------------|-------------------|
-------------------|-------------------|-------------------|-------------------|
--3----------------|--2----------------|-------------------|-------------------|
-------------------|-------------------|--3----------------|--5----------------|


  W                   W                   W                   W                 
-------------------|-------------------|-------------------|-------------------|
-------------------|-------------------|-------------------|-------------------|
-------------------|--2----------------|-------------------|--3----------------|
--3----------------|-------------------|--3----------------|-------------------|


  W                   W                   W                   W                 
-------------------|-------------------|-------------------|-------------------|
-------------------|-------------------|-------------------|-------------------|
-------------------|--2----------------|--1----------------|-------------------|
--3----------------|-------------------|-------------------|--3----------------|


  Q    Q    Q    Q       Q    Q    Q    Q       Q    Q    Q    Q     
----------------------|----------------------|----------------------|
----------------------|----------------------|----------------------|
--5----5--------------|------------3----3----|--5----5--------------|
------------6----6----|--3----3--------------|------------6----6----|


  Q    Q    Q    Q       Q    Q    Q    Q       Q    Q    Q    Q     
----------------------|----------------------|----------------------|
----------------------|----------------------|----------------------|
------------3----3----|--5----5--------------|------------3----3----|
--3----3--------------|------------6----6----|--3----3--------------|


  Q    Q    Q    Q       Q    Q    Q    Q       Q    Q    Q    Q     
----------------------|----------------------|----------------------|
----------------------|----------------------|----------------------|
--5----5--------------|--3----3----3----3----|--5----5--------------|
------------6----6----|----------------------|------------6----6----|


  Q    Q    Q    Q       Q    Q    Q    Q       Q    Q    Q    Q     
----------------------|----------------------|----------------------|
----------------------|----------------------|----------------------|
------------3----3----|--5----5--------------|--3----3----3----3----|
--3----3--------------|------------6----6----|----------------------|


  Q    Q    Q    Q       Q    Q    Q    Q       Q    Q    Q    Q     
----------------------|----------------------|----------------------|
----------------------|----------------------|----------------------|
--5----5--------------|------------3----3----|--5----5--------------|
------------6----6----|--3----3--------------|------------6----6----|


  Q    Q    Q    Q       Q    Q    Q    Q       Q    Q    Q    Q     
----------------------|----------------------|----------------------|
----------------------|----------------------|----------------------|
--3----3----3----3----|--5----5--------------|------------3----3----|
----------------------|------------6----6----|--3----3--------------|


  Q    Q    Q    Q       Q    Q    Q    Q       W                 
----------------------|----------------------|-------------------|
----------------------|----------------------|-------------------|
--5----5--------------|--3----3----3----3----|--3----------------|
------------6----6----|----------------------|-------------------|


  W                   W                   W                   W                 
-------------------|-------------------|-------------------|-------------------|
-------------------|-------------------|-------------------|-------------------|
--2----------------|-------------------|-------------------|--3----------------|
-------------------|--3----------------|--5----------------|-------------------|


  W                   W                   W                   W                 
-------------------|-------------------|-------------------|-------------------|
-------------------|-------------------|-------------------|-------------------|
--2----------------|-------------------|-------------------|-------------------|
-------------------|--3----------------|--5----------------|--3----------------|


  W                   W                   W                   W                 
-------------------|-------------------|-------------------|-------------------|
-------------------|-------------------|-------------------|-------------------|
--2----------------|-------------------|--3----------------|-------------------|
-------------------|--3----------------|-------------------|--3----------------|


  W                   W                   W                 
-------------------|-------------------|-------------------|
-------------------|-------------------|-------------------|
--2----------------|--1----------------|-------------------|
-------------------|-------------------|--3----------------|


  Q    Q    Q    Q       Q    Q    Q    Q       Q    Q    Q    Q     
----------------------|----------------------|----------------------|
----------------------|----------------------|----------------------|
--5----5--------------|------------3----3----|--5----5--------------|
------------6----6----|--3----3--------------|------------6----6----|


  Q    Q    Q    Q       Q    Q    Q    Q       Q    Q    Q    Q     
----------------------|----------------------|----------------------|
----------------------|----------------------|----------------------|
------------3----3----|--5----5--------------|------------3----3----|
--3----3--------------|------------6----6----|--3----3--------------|


  Q    Q    Q    Q       Q    Q    Q    Q       Q    Q    Q    Q     
----------------------|----------------------|----------------------|
----------------------|----------------------|----------------------|
--5----5--------------|--3----3----3----3----|--5----5--------------|
------------6----6----|----------------------|------------6----6----|


  Q    Q    Q    Q       Q    Q    Q    Q       Q    Q    Q    Q     
----------------------|----------------------|----------------------|
----------------------|----------------------|----------------------|
------------3----3----|--5----5--------------|--3----3----3----3----|
--3----3--------------|------------6----6----|----------------------|


  Q    Q    Q    Q       Q    Q    Q    Q       Q    Q    Q    Q     
----------------------|----------------------|----------------------|
----------------------|----------------------|----------------------|
--5----5--------------|------------3----3----|--5----5--------------|
------------6----6----|--3----3--------------|------------6----6----|


  Q    Q    Q    Q         W                   W                 
----------------------||--------------------|-------------------|
----------------------||*-------------------|-------------------|
--3----3----3----3----||*-------------------|-------------------|
----------------------||--------------------|-------------------|


  W                   W                     Q    Q    Q    Q     
-------------------|--------------------||----------------------|
-------------------|-------------------*||----------------------|
-------------------|-------------------*||--5----5--------------|
-------------------|--------------------||------------6----6----|


  Q    Q    Q    Q       Q    Q    Q    Q       Q    Q    Q    Q     
----------------------|----------------------|----------------------|
----------------------|----------------------|----------------------|
------------3----3----|--5----5--------------|------------3----3----|
--3----3--------------|------------6----6----|--3----3--------------|


  Q    Q    Q    Q       Q    Q    Q    Q       Q    Q    Q    Q     
----------------------|----------------------|----------------------|
----------------------|----------------------|----------------------|
--5----5--------------|------------3----3----|--5----5--------------|
------------6----6----|--3----3--------------|------------6----6----|


  Q    Q    Q    Q       Q    Q    Q    Q       Q    Q    Q    Q     
----------------------|----------------------|----------------------|
----------------------|----------------------|----------------------|
--3----3----3----3----|--5----5--------------|------------3----3----|
----------------------|------------6----6----|--3----3--------------|


  Q    Q    Q    Q       Q    Q    Q    Q       Q    Q    Q    Q     
----------------------|----------------------|----------------------|
----------------------|----------------------|----------------------|
--5----5--------------|--3----3----3----3----|--5----5--------------|
------------6----6----|----------------------|------------6----6----|


  Q    Q    Q    Q       Q    Q    Q    Q       Q    Q    Q    Q     
----------------------|----------------------|----------------------|
----------------------|----------------------|----------------------|
------------3----3----|--5----5--------------|--3----3----3----3----|
--3----3--------------|------------6----6----|----------------------|


  Q    Q    Q    Q       Q    Q    Q    Q       Q    Q    Q    Q     
----------------------|----------------------|----------------------|
----------------------|----------------------|----------------------|
--5----5--------------|------------3----3----|--5----5--------------|
------------6----6----|--3----3--------------|------------6----6----|


  Q    Q    Q    Q       Q    Q    Q    Q       Q    Q    Q    Q     
----------------------|----------------------|----------------------|
----------------------|----------------------|----------------------|
--3----3----3----3----|--5----5--------------|------------3----3----|
----------------------|------------6----6----|--3----3--------------|


  Q    Q    Q    Q       Q    Q    Q    Q       Q    Q    Q    Q     
----------------------|----------------------|----------------------|
----------------------|----------------------|----------------------|
--5----5--------------|--3----3----3----3----|--5----5--------------|
------------6----6----|----------------------|------------6----6----|


  Q    Q    Q    Q       Q    Q    Q    Q       Q    Q    Q    Q     
----------------------|----------------------|----------------------|
----------------------|----------------------|----------------------|
------------3----3----|--5----5--------------|--3----3----3----3----|
--3----3--------------|------------6----6----|----------------------|


  Q    Q    Q    Q       Q    Q    Q    Q       Q    Q    Q    Q     
----------------------|----------------------|----------------------|
----------------------|----------------------|----------------------|
--5----5--------------|------------3----3----|--5----5--------------|
------------6----6----|--3----3--------------|------------6----6----|


  Q    Q    Q    Q      
----------------------||
----------------------||
--3----3----3----3----||
----------------------||




Duration Legend
---------------
W - whole
H - half
Q - quarter
E - 8th
S - 16th
T - 32nd
X - 64th
. - note dotted
|-n-|  - n-tuplets


Tablature Legend
----------------
L - tied note
x - dead note
g - grace note
(n) - ghost note
> - accentuded note
NH - natural harmonic
AH - artificial harmonic
TH - tapped harmonic
SH - semi harmonic
PH - pitch harmonic
h - hammer on
p - pull off
b - bend
br - bendRelease
pb - preBend
pbr - preBendRelease
brb - bendReleaseBend
\n/ - tremolo bar dip
\n - tremolo bar dive
-/n - tremolo bar Release up
/n\ - tremolo bar inverted dip
/n - tremolo bar return
-\n - tremolo bar Release down
S - shift slide
s - legato slide
/ -  slide into from below or out of upwards
\ -  slide into from above or out of downwards
~ - vibrato
W - wide vibrato
tr - trill
TP - tremolo picking
T - tapping
S - slap
P - pop
< - fade in
^ - brush up
v - brush down
Suggest correction
Creating personal tab
Creating personal tab
You can edit any tab online and save it as your Personal.

You can edit, replace or remove any tab part or add personal notes – all changes will be seen only by you.

Personal tabs can be accessed anytime from any device, even offline.
Learn more »
Give kudos to tab author, rate the tab!
1 2 3 4 5
comments
print report bad tab
guest
Wanna post a correction for this tab? Suggest correction