Oops, an error
Loading. Please wait.

Simple And Clean tab

version 2
version 2

Whole song

Interactive

10,620 views 9 this week
1 commentread comment
1 2 3 4 5
1 last vote to show rating
add to favorites
×
Save as Personal and add changes to this tab that will be seen only by you. Learn more ›
×
You can save this tab as Personal to edit and correct it or add notes. All changes will be seen only by you. Learn more »
launch autoscroll
font size
0
reset
how to read this tab
guitar tuner
edit
Autoscroll
slow
fast
+/-
esc
set tempo
stop
Author
      Hey, this is my first tab but I'm damn sure it's near perfect.
                Anyway, hope it helps- let's get started.


 KEY
 5/6 = Slide from 5th fret up to 6th
 6\5 = Slide from 6th fret down to 5th
 13b15 = Bend string on 13th fret to sound like 15th
 13b15r13 = Bend string, then return to original state letting the note ring
 ~ = Vibrato the fret/let note ring

  Hikari - Kingdom Hearts


e|--------------------------------|
B|-----13b15--13--11-10--11-------|
G|--------------------------------| X3
D|--15----------------------------|
A|--------------------------------|
E|--------------------------------|

e|------------------------------------------------------|
B|---------------------11-10-11-16--15------------------|
G|--10-10-101010101010------------------15-14--15--15---| 
D|------------------------------------------------------|
A|------------------------------------------------------|
E|------------------------------------------------------|

e|------------------------------------------------------|
B|--18--16--15-13--15--16-15~------------15~--16-13~----|
G|----------------------------12-15~--12----------------| 
D|------------------------------------------------------|
A|------------------------------------------------------|
E|------------------------------------------------------|

e|---------------------------------------------------------------------|
B|-----10~-11-11~------10~-11-11~-----10~-11-13\11~-----10~-11-11~-----| 
G|--10--------------10-------------10----------------10----------------| 
D|---------------------------------------------------------------------|
A|---------------------------------------------------------------------|
E|---------------------------------------------------------------------|

e|----------------------------------------------3--------|
B|--------------------------------------------4----------|
G|--5353535--7-8--5---4242424--5-7--8-5---3h5------------| 
D|-------------------------------------------------------|
A|-------------------------------------------------------|
E|-------------------------------------------------------|

e|-------------------------------------------------------|
B|-------------------------------------------------------|
G|--5-3-5--5-3-5--5-3-55557777888810101010-12~-10--------|
D|------------------------------------------------10~----|
A|-------------------------------------------------------|
E|-------------------------------------------------------|

e|-------------------------------------------------------|
B|-------------------------------------------------------|
G|-----13-12~--------------8--------8--------12~-12~~~---| 
D|--9----------9-10--88-10----88-10----10-9--------------|
A|-------------------------------------------------------|
E|-------------------------------------------------------|


    

e|--------------------------------|
B|-----13b15--13--11-10--11-------|
G|--------------------------------| X3
D|--15----------------------------|
A|--------------------------------|
E|--------------------------------|

e|-------------------------------------------------------|
B|-----------------10--10-11--16--15---------------------|
G|--10-101010101010--10---------------15-14--15--15------| 
D|-------------------------------------------------------|
A|-------------------------------------------------------|
E|-------------------------------------------------------|

e|-------------------------------------------------------|
B|--18--16--15-13--15--16-13b15---------15~--16-13-11-10-|
G|-------------------------------12-15~------------------| 
D|-------------------------------------------------------|
A|-------------------------------------------------------|
E|-------------------------------------------------------|

e|----------------------------------------------------------|
B|--18~-----------18-18-18b20r18-16-15-16-18~---------------|
G|------151515~-15----------------------------151515~-------| 
D|----------------------------------------------------------|
A|----------------------------------------------------------|
E|----------------------------------------------------------|

e|-------------------------------------------------------|
B|--------16-1516-18-13----------------------------------|
G|--14-15--------------------14-15-----14-15-------------| 
D|------------------------15--------15-------------------|
A|-------------------------------------------------------|
E|-------------------------------------------------------|

e|------------------------------------------------------------|
B|----------------------------------------------15-13-16-15---|
G|-----------------------------------12/15~-------------------| 
D|--15-13-12-13-12-13-15-15-15/17-15---------15---------------|
A|------------------------------------------------------------|
E|------------------------------------------------------------|




e|--------------------------------|
B|-----13b15--13--11-10--11-------|
G|--------------------------------| X3
D|--15----------------------------|
A|--------------------------------|
E|--------------------------------|

e|-------------------------------------------------------|
B|------------------11--10-11--16--15--------------------|
G|--1010101010101010--10---------------15-14--15--15-----|
D|-------------------------------------------------------|
A|-------------------------------------------------------|
E|-------------------------------------------------------|

e|--------------------------------------------------------------|
B|--18--16--15-13--15--16-13b15---------15~--16-13~--11--18~~~--|
G|-------------------------------12-15~-------------------------| 
D|--------------------------------------------------------------|
A|--------------------------------------------------------------|
E|--------------------------------------------------------------|



        Well that's it. Good luck and I hope you all liked it.
            Please rate and comment on this tab and feel
                 free to e-mail me- Sozoji@aol.com
                            Thank you!
                                                                  
                                                      -ZACK

            
            
Suggest correction
Creating personal tab
Creating personal tab
You can edit any tab online and save it as your Personal.

You can edit, replace or remove any tab part or add personal notes – all changes will be seen only by you.

Personal tabs can be accessed anytime from any device, even offline.
Learn more »
Give kudos to tab author, rate the tab!
1 2 3 4 5
comments
print report bad tab
1 comment total.
0 reply
Rolamoto 20 Nov 08, 2007 12:38 PM

This is no where near perfect.

guest
You may want to rate the tab now too:
select rating
Wanna post a correction for this tab? Suggest correction