Oops, an error
Loading. Please wait.

Cuerpo De Ola tab

61 views 1 this week
no commentswrite comment
1 2 3 4 5
3 more votes to show rating
add to favorites
×
Save as Personal and add changes to this tab that will be seen only by you. Learn more ›
×
You can save this tab as Personal to edit and correct it or add notes. All changes will be seen only by you. Learn more »
launch autoscroll
font size
0
reset
how to read this tab
guitar tuner
edit
Autoscroll
slow
fast
+/-
esc
set tempo
stop
CUERPO DE OLA 

Intro del directo

e:--7-8-7-8/10-10-8-7--------------------------------
B:--------------------8-8---------10/12/10---8-------
G:--------------------------7-9-7----------9---9-7---
D:-------------------------------------------------9-
A:---------------------------------------------------
E:---------------------------------------------------


e:-7-8-7-8/10-/19-17-15-------------------------------
B:----------------------15----------------------------
G:----------------------------7---------7-9-7---------
D:--------------------------9---9/7-7-9-------9-7-----
A:------------------------------------------------10--
E:----------------------------------------------------

G
Tienes ya veinte años, 

cuerpo de ola, 
              Am                    G 
y tu padre no quiere que salgas sola. 
  
G
Tienes sal en los ojos, 

sed en tu vientre, 
                  Am 
caracolas de sombra 
                 G 
y trigo caliente. 

C                   G                       Am
Te cortejan los hombres por los senderos 
C                 G           D            G 
y tu padre no quiere que hables con ellos; 
C                                          Am 
un  noche de fuego y árboles negros 
G               Am
tu padre ya no pudo 
D                  C
tu padre ya no pudo 
              G
matar sus celos. 
  

En la noche sin luna temblores de alba 
dibujarán sus besos sobre tu cama. 
Cascabeles de sangre, peces de plata 
cantaron por tu cuerpo de seda y nácar. 
  

Desde entonces ya crecen en tu voz amapolas 
y tu padre no quiere que duermas sola. 
Tienes ya veinte años, cuerpo de ola, 
y tu padre no quiere que salgas sola.

            
            
Suggest correction
Creating personal tab
Creating personal tab
You can edit any tab online and save it as your Personal.

You can edit, replace or remove any tab part or add personal notes – all changes will be seen only by you.

Personal tabs can be accessed anytime from any device, even offline.
Learn more »
Give kudos to tab author, rate the tab!
1 2 3 4 5
comments
print report bad tab
guest
Wanna post a correction for this tab? Suggest correction