Oops, an error
Loading. Please wait.

Despistado tab

73 views 1 this week
no commentswrite comment
1 2 3 4 5
3 more votes to show rating
add to favorites
×
Save as Personal and add changes to this tab that will be seen only by you. Learn more ›
×
You can save this tab as Personal to edit and correct it or add notes. All changes will be seen only by you. Learn more »
launch autoscroll
font size
0
reset
how to read this tab
guitar tuner
edit
Autoscroll
slow
fast
+/-
esc
set tempo
stop
Despistado

Intro del directo:
e:-------------------------------------------
B:-------------------------------------------
G:-----------2-2-4-2-4-----------------------
D:-2-2-2-4-2-0-0-------2-2-4-2-4-------------
A:-0-0-0---------------0-0--------2-2-4-2-4--
E:--------------------------------0-0--------

MI                     DO
Son las ocho y tengo bailando
LA7                            
dentro de mi cerebro
SI7
una resaca letal

dejo la cama pensando
me esto levantando
y total que mas da.

Enciendo un cigarro y despúes
preparo el café
no puedo dejar de pensar
por que te largaste anteayer.

(Aquí la intro o los acordes)
LA7                 MI7
Preguntarse es de sabios
LA7               SI7
me aconseja el espejo del baño
me pregunto si debo
preguntarme porque me has dejado

despistado, confundido
ofuscado , deprimdo
despistado, confundido
ofuscado , deprimdo

Fin:
e:-----0-----0-------0-----0-------0----0-------0-----0-
B:---3-----3-------2-----2-------1----1-------0-----0---
G:-4-----4-----4-3-----3-----3-2----2-----2-1-----1-----
D:------------------------------------------------------
A:------------------------------------------------------
E:------------------------------------------------------
Suggest correction
Creating personal tab
Creating personal tab
You can edit any tab online and save it as your Personal.

You can edit, replace or remove any tab part or add personal notes – all changes will be seen only by you.

Personal tabs can be accessed anytime from any device, even offline.
Learn more »
Give kudos to tab author, rate the tab!
1 2 3 4 5
comments
print report bad tab
guest
Wanna post a correction for this tab? Suggest correction