Oops, an error
Loading. Please wait.

Beat Of My Heart tab

version 2
version 2

Whole song

Interactive

1,911 views 1 this week
no commentswrite comment
1 2 3 4 5
2 more votes to show rating
add to favorites
×
Save as Personal and add changes to this tab that will be seen only by you. Learn more ›
×
You can save this tab as Personal to edit and correct it or add notes. All changes will be seen only by you. Learn more »
launch autoscroll
font size
0
reset
how to read this tab
guitar tuner
edit
Autoscroll
slow
fast
+/-
esc
set tempo
stop
Difficulty
Hilary Duff is hot and her music is cool. I tabbed this song after listening to it by 
it's pretty fun and easy to play. I recommend it for beginners. So here it is...:)

INTRO:
[1st Guitar](PALM MUTE on this single note)(Relatively slow)
----------------------------------------------------|
----------------------------------------------------|
----------------------------------------------------|
---4444444444--(continues for a while during intro--|
----------------------------------------------------|
----------------------------------------------------|

CHORUS:
[1st Guitar]
--------------------------------------------------|
--------------------------------------------------|
--------------------------------------------------|
---44444444/66666666\44444444/9999\888\44444444/--|
--------------------------------------------------|
--------------------------------------------------|
(continued)
---------------------------------------------------|
---------------------------------------------------|
---------------------------------------------------|
---66666666\44444444/999\888\4---------------------|(Let last note ring)
---------------------------------------------------|
---------------------------------------------------|

VERSE:
[1st Guitar] (Play these single notes PALM MUTED)
--------------------------------------------------|
--------------------------------------------------|
--------------------------------------------------|
-4-44-44----3-33-33----1-11-11--------------------|
----------------------------------2-22-22---------|
--------------------------------------------------|
(Continued)                                         {Play Four Times
--------------------------------------------------|
--------------------------------------------------|
--------------------------------------------------|
-4-44-44----6-66-66----4-44-44--------------------|
----------------------------------2-22-22---------|
--------------------------------------------------|

CHORUS:
[1st Guitar]
--------------------------------------------------|
--------------------------------------------------|
--------------------------------------------------|
---44444444/66666666\44444444/9999\888\44444444/--|
--------------------------------------------------|
--------------------------------------------------|
(Continued)
---------------------------------------------------|
---------------------------------------------------|
---------------------------------------------------|
---66666666\44444444/999\888\4---------------------|(Let last note ring)
---------------------------------------------------|
---------------------------------------------------|

[2nd Guitar in background] (Listen for rythem of strumming)
(Also has a slight Flange effect)
---6--|
---7--|(This chord kicks in after a few seconds, so listen for it)
---6--|
---8--|
------|
------|
Verse:
[1st Guitar](This follows after the bass riff)
---------------------------------------------------|
---------------------------------------------------|
-----4-4-3-3---------------------------------------|(Play this little riff for a while)
-------------4-3-----------------------------------|
-2-2-----------------------------------------------|
---------------------------------------------------|
[2nd Guitar] (Use Harmonics on these notes)
--------------------------------------------------|
-------------------------------12*---------12*----|
-------7*--------7*--------12*---------12*--------|
----7*--------7*-------12*---------12*------------|
-7*--------7*-------------------------------------|
--------------------------------------------------|
(continued)
--------------------------------------------------|
---------------------------------12*---------12*--|
-------7*--------7*----------12*---------12*------|
----7*--------7*---7*----12*---------12*----------|
-7*--------7*-------------------------------------|
--------------------------------------------------|

Well that's it fellas..the song basically repeats itself after this and ends...Good song...Enjoy. :)

            
            
Suggest correction
Creating personal tab
Creating personal tab
You can edit any tab online and save it as your Personal.

You can edit, replace or remove any tab part or add personal notes – all changes will be seen only by you.

Personal tabs can be accessed anytime from any device, even offline.
Learn more »
Give kudos to tab author, rate the tab!
1 2 3 4 5
comments
print report bad tab
guest
Wanna post a correction for this tab? Suggest correction