Oops, an error
Loading. Please wait.

Night Like This tab

version 1
version 1

Whole song

  • Complete tab of this song more effects of second guitar.
28 views 1 this week
no commentswrite comment
1 2 3 4 5
3 more votes to show rating
add to favorites
×
Save as Personal and add changes to this tab that will be seen only by you. Learn more ›
×
You can save this tab as Personal to edit and correct it or add notes. All changes will be seen only by you. Learn more »
launch autoscroll
font size
0
reset
how to read this tab
guitar tuner
edit
Autoscroll
slow
fast
+/-
esc
set tempo
stop
Author
Difficulty
About this tab version
Complete tab of this song more effects of second guitar. Was this info helpful? Yes No
[Chords for Chorus]
  
    C#    D#    Fm
e|--4--|--6--|--8--------|      
B|--4--|--6--|--9--------|   
G|--6--|--8--|--10-------|   
D|--6--|--8--|--10-------|   
A|--4--|--6--|--8--------|   
E|--x--|--x--|--x--------|
  
[Intro]

e|------------------------|-------------------------|------------------------|
B|------------------------|-------------------------|------------------------|
G|------------------------|-------------------------|------------------------|
D|----6------10----8----3-|----6-------10----8-----5|-----6------10----8----3|
A|--4----4/8-----6----1---|-1/4-----4/8----6-----3--|-3/4----4/8----6-----1--|
E|------------------------|-------------------------|------------------------|

e|----------------------------------|----------------------------------------|
B|----------------------------------|----------------------------------------|
G|----------------------------------|----------------------------------------| Repeat 
D|------6-------10----8----5------6-|----------------------------------------| 
A|--1/4-----4/8-----6----3----3/4---|----------------------------------------|
E|----------------------------------|----------------------------------------|

[Verse 1]

e|------------------------|-------------------------|------------------------|
B|------------------------|-------------------------|------------------------|
G|------------------------|-------------------------|------------------------|
D|----6------10----8----3-|----6-------10----8-----5|-----6------10----8----3|
A|--4----4/8-----6----1---|-1/4-----4/8----6-----3--|-3/4----4/8----6-----1--|
E|------------------------|-------------------------|------------------------|

e|----------------------------------|----------------------------------------|
B|----------------------------------|----------------------------------------|
G|----------------------------------|----------------------------------------| Repeat 
D|------6-------10----8----5------6-|----------------------------------------| 
A|--1/4-----4/8-----6----3----3/4---|----------------------------------------|
E|----------------------------------|----------------------------------------|

[Hilary Duff:]
I've been watching the phases of the moon
From my window pane
I've been talking to corners of the room
For too long, too long
[Kendall Schmidt:]
Met you when my heart was somewhere else
Outside in the rain
Saw you smiling, the stories you could tell
Have you moved on, moved on?
[Hilary Duff:]
It's so hard to get a cab in midnight on Friday
[Kendall Schmidt:]
Where you going?
[Hilary Duff:]
Downtown
[Kendall Schmdit:]
So am I
Sit right here where it's dry
And if it's said you're going my way
[Hilary Duff:]
Well maybe we should share a ride

[Chorus]

after of every Oh woah oh
e|---------------|
B|---------------|
G|---------------|
D|--4/6----------|
A|--6/4----------|
E|---------------|

C#              D#
I could feel my heartbeat
               Fm         D#  C#
Electric to my fingertips
Oh woah oh
C#              D$
I could feel anticipation
           Fm    D#  C#
Through my veins
Oh woah oh
C#           D#                      Fm              D#  C#
I can almost feel the weight of your kiss on my lips
C#                          C#                  D#
Cause anything could happen on a night like this
                    Fm  D#  C#
On a night like this

[Verse 2]

e|------------------------|-------------------------|------------------------|
B|------------------------|-------------------------|------------------------|
G|------------------------|-------------------------|------------------------|
D|----6------10----8----3-|----6-------10----8-----5|-----6------10----8----3|
A|--4----4/8-----6----1---|-1/4-----4/8----6-----3--|-3/4----4/8----6-----1--|
E|------------------------|-------------------------|------------------------|

e|----------------------------------|----------------------------------------|
B|----------------------------------|----------------------------------------|
G|----------------------------------|----------------------------------------| Repeat 
D|------6-------10----8----5------6-|----------------------------------------| 
A|--1/4-----4/8-----6----3----3/4---|----------------------------------------|
E|----------------------------------|----------------------------------------|

[Kendall Schmidt:]
Wouldn't mind if we caught every red light
You're someone I could get close to
[Hilary Duff:]
You're a stranger but there's something in your eyes
Like you know me
[Kendall Schmidt:]
Could I know you?
Well I never fell in love at midnight on Friday
[Hilary Duff:]
Standing outside
[Kendall Schmidt:]
Of town
[Hilary Duff:]
In the rain
[Kendall Schmidt:]
Well this ride is almost over
But if I had it my way
[Hilary Duff & Kendall Schmidt:]
We would just stay up all night

[Chorus]

after of every Oh woah oh
e|---------------|
B|---------------|
G|---------------|
D|--4/6----------|
A|--6/4----------|
E|---------------|

C#              D#
I could feel my heartbeat
               Fm         D#  C#
Electric to my fingertips
Oh woah oh
C#              D#
I could feel anticipation
           Fm    D#  C#
Through my veins
Oh woah oh
C#           D#                      Fm              D#  C#
I can almost feel the weight of your kiss on my lips
C#                          C#                  D#
Cause anything could happen on a night like this
                    Fm  D#  C#
On a night like this

[Bridge]

Bbm                          C#
Our hands fit just the right way
Fm                          D#
Our legs tangled up in this small space
Bbm                         C#
The world outside feels far away
Fm               D#
As I get to know you

[Chorus]

after of every Oh woah oh
e|---------------|
B|---------------|
G|---------------|
D|--4/6----------|
A|--6/4----------|
E|---------------|

C#              D#
I could feel my heartbeat
               Fm         D#  C#
Electric to my fingertips
Oh woah oh
C#              D$
I could feel anticipation
           Fm    D#  C#
Through my veins
Oh woah oh

e|---------------------------------------------------------------------------|
B|---------------------------------------------------------------------------|
G|---------------------------------------------------------------------------|
D|------6-8-8\10--------------------------------------------------------------|
A|--6-8----------------------------------------------------------------------|
E|---------------------------------------------------------------------------|

C#           D#                      Fm              D#  C#
I can almost feel the weight of your kiss on my lips
C#                          C#                  D#
Cause anything could happen on a night like this
                    Fm  D#  C#
On a night like this

[Outro]

this can be with other guitar 
e|---------------------------|------------------------------------------------|
B|---------------------------|------------------------------------------------|
G|---------------------------|------------------------------------------------|
D|------6-8-8/10-8\6-8/10-8--|-----6-8-8/10-8\6-8-6---------------------------|
A|--6-8----------------------|-6-8--------------------------------------------|
E|---------------------------|------------------------------------------------|

e|---------------------------|------------------------------------------------|
B|---------------------------|------------------------------------------------|
G|---------------------------|------------------------------------------------|
D|------6-8-8/10-8\6-8/10-8--|-----6-8-8/10-8\6-8-6---------------------------|
A|--6-8----------------------|-6-8--------------------------------------------|
E|---------------------------|------------------------------------------------|

C#        D#
Oh woah oh
          Fm  D#  C#
Oh woah oh
C#                     C#                 D#
Anything could happen on a night like this
                    Fm  D#  C#
On a night like this

[Kendall Schmidt:]
                    C#  D#
On a night like this

[Hilary Duff & Kendall Schmidt:]
                    Fm  D#  C#
On a night like this


************************************

| /   Slide up
| \   Slide down

************************************

            
            
Suggest correction
Creating personal tab
Creating personal tab
You can edit any tab online and save it as your Personal.

You can edit, replace or remove any tab part or add personal notes – all changes will be seen only by you.

Personal tabs can be accessed anytime from any device, even offline.
Learn more »
Give kudos to tab author, rate the tab!
1 2 3 4 5
comments
print report bad tab
guest
You may want to rate the tab now too:
select rating
Wanna post a correction for this tab? Suggest correction