Oops, an error
Loading. Please wait.

All Of This tab

version 1
version 1

Whole song

by Hilera
98 views 1 this week
no commentswrite comment
1 2 3 4 5
2 more votes to show rating
add to favorites
×
Save as Personal and add changes to this tab that will be seen only by you. Learn more ›
×
You can save this tab as Personal to edit and correct it or add notes. All changes will be seen only by you. Learn more »
launch autoscroll
font size
0
reset
how to read this tab
guitar tuner
edit
Autoscroll
slow
fast
+/-
esc
set tempo
stop
Author
Tabbers playing skills
advanced +
intro
e--------------------------------------------|
b-----2-----2-------2------2-----------------|
g---------4---2----------4---2---------------|
D--------------------------------------------|
A---0---0---------0----0---------------------|
E--------------------------------------------|
                                                        2x
e--------------------------------------------|
b-----2-----2-------2------2-----------------|
g---------4---2----------4---2---------------|
D--------------------------------------------|
A--------------------------------------------|
E---0---0-------4------4---------------------|

then g2 enters
2x
e-----------------------------------------------------|
b-----------------------------------------------------|
g-----------------------------------------------------|
D---7777777777777----22222222-66666666----------------|
A---7777777777777----22222222-66666666----------------|
E---5555555555555----00000000-44444444----------------|
g2- A E G#5

verse- 
All the time
Doing nothing, getting nothing
e--------------------------------------------|
b-----2-----2-------2------2-----------------|
g---------4---2----------4---2---------------|
D--------------------------------------------|
A---0---0---------0----0---------------------|
E--------------------------------------------|
                                                        
e--------------------------------------------|
b-----2-----2-------2------2-----------------|
g---------4---2----------4---2---------------|
D--------------------------------------------|
A--------------------------------------------|
E---0---0-------4------4---------------------|
Sometimes
Fishing something, getting nothing
e--------------------------------------------|
b-----2-----2-------2------2-----------------|
g---------4---2----------4---2---------------|
D--------------------------------------------|
A---0---0---------0----0---------------------|
E--------------------------------------------|
                                                        
e--------------------------------------------|
b-----2-----2-------2------2-----------------|
g---------4---2----------4---2---------------|
D--------------------------------------------|
A--------------------------------------------|
E---0---0-------4------4---------------------|
From me
Diamond rings are for earrings only
e--------------------------------------------|
b-----2-----2-------2------2-----------------|
g---------4---2----------4---2---------------|
D--------------------------------------------|
A---0---0---------0----0---------------------|
E--------------------------------------------|
                                                        
e--------------------------------------------|
b-----2-----2-------2------2-----------------|
g---------4---2----------4---2---------------|
D--------------------------------------------|
A--------------------------------------------|
E---0---0-------4------4---------------------|
Too bad
It’s difficult to fall
e--------------------------------------------|
b-----2-----2-------2------2-----------------|
g---------4---2----------4---2---------------|
D--------------------------------------------|
A---0---0---------0----0---------------------|
E--------------------------------------------|
                                                        
e--------------------------------------------|
b-----2-----2-------2------2-----------------|
g---------4---2----------4---2---------------|
D--------------------------------------------|
A--------------------------------------------|
E---0---0-------4------4---------------------|

chorus- c#5 A5 E5 f#5

                                                        
e------------------------------------------------------------------|
b------------------------------------------------------------------|
g-----66666666-----------------------------------------------------|
D-----66666666---777777777---22222222-444444444--------------------|
A-----444444444--777777777---22222222-444444444--------------------|
E----------------555555555---00000000-222222222--------------------|

Til one of these fall down on me
And it’s a wasted time

then -sabay
e--------------------------------------------|
b-----2-----2-------2------2-----------------|
g---------4---2----------4---2---------------|
D--------------------------------------------|
A---0---0---------0----0---------------------|
E--------------------------------------------|
                                                        2x
e--------------------------------------------|
b-----2-----2-------2------2-----------------|
g---------4---2----------4---2---------------|
D--------------------------------------------|
A--------------------------------------------|
E---0---0-------4------4---------------------|


2x
e-----------------------------------------------------|
b-----------------------------------------------------|
g-----------------------------------------------------|
D---7777777777777----22222222-66666666----------------|
A---7777777777777----22222222-66666666----------------|
E---5555555555555----00000000-44444444----------------|

repeat verse
chorus

then repeat intro 1 the do chorus chords then chorus then outro...
by rakiztahz_03@yahoo.com
add nyo..heheehh.....
Suggest correction
Creating personal tab
Creating personal tab
You can edit any tab online and save it as your Personal.

You can edit, replace or remove any tab part or add personal notes – all changes will be seen only by you.

Personal tabs can be accessed anytime from any device, even offline.
Learn more »
Give kudos to tab author, rate the tab!
1 2 3 4 5
comments
print report bad tab
guest
You may want to rate the tab now too:
select rating
Wanna post a correction for this tab? Suggest correction