Oops, an error
Loading. Please wait.

Define tab

version 3
version 3

Whole song

Interactive

by Hilera
7,320 views 3 this week
14 commentsread comments
1 2 3 4 5
x 12
add to favorites
×
Save as Personal and add changes to this tab that will be seen only by you. Learn more ›
×
You can save this tab as Personal to edit and correct it or add notes. All changes will be seen only by you. Learn more »
launch autoscroll
font size
0
reset
how to read this tab
guitar tuner
edit
Autoscroll
slow
fast
+/-
esc
set tempo
stop
Author
Artist:Hilera
Song:Define
Tabbed by: Ram Red (09196228339)
Email:alexisonfire066@yahoo.com - friendster

. - palm mute
x - dead string
/ - slide
~ - let it ring

Standard Tuning 

Intro
e|------------------------------------------|
B|------------------------------------------|
G|--6~-------6~-------6~-------6~---666666--|
D|--6~-------6~-------6--------6----666666--|
A|--4~-xxxx--4~-xxxx--4~-xxxx--4~---444444--|
E|------------------------------------------|
                                    ....... 

Guitar 1  C# - G# - Bb - F#

Chorus 
e|-----------------------------|
B|-----------------------------|
G|--6666-----------------------|
D|--6666---6666---8888---4444--| 2x
A|--4444---6666---8888---4444--|
E|---------4444---6666---2222--|

Pre-Verse  C# - G# - Bb - F#
Guitar 1
e|------------------------------|
B|------------------------------|
G|--6666------------------------| REPEAT 2X
D|--6666--6666---8888--4444-----|
A|--4444--6666---8888--4444-----|
E|--------4444---6666--2222-----|

Guitar 2 ( Use Alternate picking and add some variations)

e|----------------------------------------------------|
B|---/9-9h11-9-9-11--/9-9h11-9-9-11-/-9-9h11-9-9-11---|
G|----------------------------------------------------|  REPEAT
D|----------------------------------------------------| AS NEEDED
A|----------------------------------------------------|
E|----------------------------------------------------|

Verse C# - G# - Bb - F#
e|-------------------------------------|
B|-------------------------------------|
G|--6~-----------------6~--------------|
D|--6~---6~---8~---4~--6~--6~--8~--4~--|
A|--4~---6~---8~---4~--4~--6~--8~--4~--|
E|-------4~---6~---2~------4~--6~--2~--|

Pre-Chorus: C# - G# - Bb - F#

Say hello its me lets go
e|-------------------------------------|
B|-------------------------------------|
G|--6-6666-----------------------------|
D|--6-6666---6-6666---8-8888---4-4444--| 2x
A|--4-4444---6-6666---8-8888---4-4444--|
E|-----------4-4444---6-6666---2-2222--|

      ....     ....     ....     ....

Repeat Chorus
Pre-Verse Guitars 1 and 2

Bridge: Bb - F# - C# - G#

Touch me baby..
e|------------------------------- -------------------------|
B|------------------------------- -------------------------|
G|-----------------66666--------- ------------6666---------|
D|---88888--44444--66666--66666-- --8888-4444-6666-6666666-|
A|---88888--44444--44444--66666-- --8888-4444-4444-6666666-|
E|---66666--22222---------44444-- --6666-2222------4444444-|

                                                   ......
Repeat Verse
Pre-Chorus
Chorus w/lead

End





Suggest correction
Creating personal tab
Creating personal tab
You can edit any tab online and save it as your Personal.

You can edit, replace or remove any tab part or add personal notes – all changes will be seen only by you.

Personal tabs can be accessed anytime from any device, even offline.
Learn more »
comments
print report bad tab
14 comments total. Showing first comments.
0 reply
SundaySt 61 Dec 01, 2006 04:16 AM

wla atang mga hammer and pull off's ung solo/riff na yun

0 reply
angelo06 30 Dec 26, 2006 01:40 AM

mejo k2nog ung lead kso dko sure kung tma.. iba ata ung gngwa ng hilera..eh

0 reply
No_Falter08 2,414 Jan 18, 2007 01:10 PM

Ei dude,try dis one!!

Riff:
e|-3-4-4/6-4---|
B|-------------|
G|-------------| 8x Then end it on 4~
D|-------------|
A|-------------|
E|-------------|

Verse:
e|-------------------------|
B|-------------------------|
G|-------------------------|
D|-6666-6666-33333-44444---|
A|-4444-3333-11111-44444---|
E|-----------------22222---|

nka Drop D nga pla sipra q d2..hek2
Nce tab n dn i2!!!porn star****....

Gni2 intro q,try m na rin ram boy!!ohh yeahh...
e|-----------------------------------------|
B|-----------------------------------------|
G|-6~--------666~----------6666~-----------| May strumming pattern
D|-6~--------666~----------6666~-----------| aq jan...
A|-4444444444444~-4444444444444~-4444444---|
D|-0000000000000000000000000000000000000---|

guest
You may want to rate the tab now too:
select rating
Wanna post a correction for this tab? Suggest correction