Oops, an error
Loading. Please wait.

Dehado tab

version 1
version 1

Whole song

by Hilera
550 views 1 this week
no commentswrite comment
1 2 3 4 5
1 last vote to show rating
add to favorites
×
Save as Personal and add changes to this tab that will be seen only by you. Learn more ›
×
You can save this tab as Personal to edit and correct it or add notes. All changes will be seen only by you. Learn more »
launch autoscroll
font size
0
reset
how to read this tab
guitar tuner
edit
Autoscroll
slow
fast
+/-
esc
set tempo
stop
Author
Artist: Hilera
Tilte: Dehado
Album: Hilera


merong konting problema dahil di ako sure sa ibang parts ilalagay ko na lang kung saan 
di ako 100% na sure ha kayo na bahala kung malaman nyo man kung ano yon


Intro:
e|--------------------|
B|---11-9-10-8-10-9---|
G|--9--------------9--|
D|--------------------|
A|--------------------|
E|--------------------|

yan 6x then ung end nya ito

e|----------------------|
B|---11-9-10-8-10-9-10--|
G|--9--------------9----|
D|----------------------|
A|----------------------|
E|----------------------|

yan ang end tapos pasok ang Verse

Verse: di sa strum mode parang placking sunod sunod ang pagkalabit sa string

e|-------------------------------13--------------------------------14------|
B|-------------------------------13--------------------------------14------|
G|----9---6---9---5---7---9---13-13----9---6---9---6---9---11---13-14------|
D|---9---6---9---5---7---9---13-------9---6---9---6---9---11---13----------|
A|--7---4---7---3---5---7---11-------7---4---7---4---7---9---11------------|
E|-------------------------------------------------------------------------|


pre verse ata ito ung part na meron akong dala saan na napunta..

e|-------------------------------------------------------------------------|
B|-------------------------------------------------------------------------|
G|-------------------------------------------------------------------------|
D|--7-7-7-7-7-7-7-7--4-4-4-4-4-4-4-4--7-7-7-7-7-7-7-7--4-4-4-4-4-4-4-4-----|
A|--5-5-5-5-5-5-5-5--2-2-2-2-2-2-2-2--5-5-5-5-5-5-5-5--2-2-2-2-2-2-2-2-----|
E|-------------------------------------------------------------------------|
(tuloy tuloy lang bagsak bagsak ung strum)(not 100% sure tong pre verse)

e|-------------------------------------------------------------------------|
B|-------------------------------------------------------------------------|
G|-------------------------------------------------------------------------|
D|-----------------------------------------------------7-7-7-7-7-7-7-7-----|
A|--5-5-5-5-5-5-5-5--7-7-7-7-7-7-7-7--9-9-9-9-9-9-9-9--5-5-5-5-5-5-5-5-----|
E|--3-3-3-3-3-3-3-3--5-5-5-5-5-5-5-5--7-7-7-7-7-7-7-7----------------------|
(not 100% sure)
repeat na lang nyo to kung kailangan


Chorus:

e|-------------------------------------------------------------------------|
B|-------------------------------------------------------------------------|
G|-------------------------------------------------------------------------|
D|---------------------------------6-6-6-6-6-6-6-6-6-6-6-6-6-6-6-6---------|
A|--7-7-7-7-7-7-7-7-7-7-7-7-7-7-7--4-4-4-4-4-4-4-4-4-4-4-4-4-4-4-4---------|
E|--5-5-5-5-5-5-5-5-5-5-5-5-5-5-5------------------------------------------|

repeat nyo nalng kung kailangan ulitin..

Then ung part na malilimot mo rin ako wohh..

di rin ako 100% sure ito ung nakapa ko

e|-------------------------------------------------------------------------|
B|-------------------------------------------------------------------------|
G|-------------------------------------------------------------------------|
D|------------------------------------6-6-6-6-6-6-6-6-6-hold-ung-strum?----|
A|--7-7-7-7-7-7-7-7--9-9-9-9-9-9-9-9--4-4-4-4-4-4-4-4-4-hold-ung-strum?----|
E|--5-5-5-5-5-5-5-5--7-7-7-7-7-7-7-7---------------------------------------|

ung part na sa gitna ng kawalan verse ata un

Verse ito un

e|----------------------------------------------------------|
B|----------------------------------------------------------|
G|--x-9-x-9-x-9-x-x-x--x-9-x-9-x-9-x-x-x--x-6-x-6-x-6-x-x-x-|
D|--x-9-x-9-x-9-x-x-x--x-9-x-9-x-9-x-x-x--x-6-x-6-x-6-x-x-x-|
A|--x-7-x-7-x-7-x-x-x--x-9-x-9-x-9-x-x-x--x-4-x-4-x-4-x-x-x-|
E|----------------------------------------------------------|

Then...

e|-------------------------------------------------------------------------|
B|-------------------------------------------------------------------------|
G|--x-9-x-9-x-9-x-x-x--x-11-x-11-x-11-x-x-x--x-13-x-13-x-13-x-x-x----------|
D|--x-9-x-9-x-9-x-x-x--x-11-x-11-x-11-x-x-x--x-13-x-13-x-13-x-x-x----------|
A|--x-7-x-7-x-7-x-x-x--x--9-x--9-x--9-x-x-x--x-11-x-11-x-11-x-x-x----------|
E|-------------------------------------------------------------------------|

yan paki ulit nlang kung kailangan

Repeat pre verse

Repeat Chorus

Silent part ung wag kang kukurap..

e|-------------------------------------------------------------------------|
B|-------------------------------------------------------------------------|
G|-------------------------------------------------------------------------|
D|-----------------------------------6-6-x-6-6-6-x-6-6-6-x-6-6-6-x-6-------|
A|--7-7-x-7-7-7-x-7-7-7-x-7-7-7-x-7--4-4-x-4-4-4-x-4-4-4-x-4-4-4-x-4-------|
E|--5-5-x-5-5-5-x-5-5-5-x-5-5-5-x-5----------------------------------------|

yan paki repeat na rin kung kailangan tapos ung ibang part nand2 narin
hanapin nyo nlang kasi inulit ulit lang ung ending nya eto!


e|--8---6-------|
B|----8---6-----|
G|--------------|
D|--------------|
A|--------------|
E|--------------|

yan thx!! paki rate kahit pangit!! ^_^

            
            
Suggest correction
Creating personal tab
Creating personal tab
You can edit any tab online and save it as your Personal.

You can edit, replace or remove any tab part or add personal notes – all changes will be seen only by you.

Personal tabs can be accessed anytime from any device, even offline.
Learn more »
Give kudos to tab author, rate the tab!
1 2 3 4 5
comments
print report bad tab
guest
You may want to rate the tab now too:
select rating
Wanna post a correction for this tab? Suggest correction