Oops, an error
Loading. Please wait.

Nothing New tab

version 1
version 1

Whole song

by Hilera
352 views 1 this week
3 commentsread comments
1 2 3 4 5
x 4
add to favorites
×
Save as Personal and add changes to this tab that will be seen only by you. Learn more ›
×
You can save this tab as Personal to edit and correct it or add notes. All changes will be seen only by you. Learn more »
launch autoscroll
font size
0
reset
how to read this tab
guitar tuner
edit
Autoscroll
slow
fast
+/-
esc
set tempo
stop
Author
Tabbers playing skills
advanced +
Intro

Gtr 1          
(11)=dead string
(13)*13=mabilis 
H-hold


e|-----------------------------------------------|
B|------10---------------------------------------|
G|-----(11)-------(13)*13/p11-----------9-9/11---|
D|--11----------------------11-11-11-------------| 8x
A|-----------------------------------------------|
E|-----------------------------------------------|


 
  

then g2 at the 4th tym-

e|---------------------------------|        
B|---------------------------------|         
G|-----------66666666--------------|        
D|-44444444--66666666--------------| 4x
A|-44444444--44444444--------------|        
E|-22222222------------------------|         

Verse 
 I never wanted to write...
   
e|-------------------------------|        
B|-------------------------------|         
G|-------------------------------|        
D|-4-4-----4--4-4-----4----------| 
A|-4-4----4-H-4-4----4--H--------|               
E|-2-2---2----2-2---2------------|
   PM           PM   
something like this...
e|-------------------------------------------------|        
B|-------------------------------------------------|         
G|--444444444444444----7777777777777777------------|  
D|--444444444444444----7777777777777777------------|
A|--222222222222222----5555555555555555------------|
E|-------------------------------------------------|

REPEAT VERSE-

Chorus Part 1 

e|----------------------------------------------------------------|        
B|----------------------------------------------------------------|         
G|----------------------------------------------------------------|  
D|--7777777---999999999---111111111111111---12121212121212--------|4x
A|--7777777---999999999---111111111111111---12121212121212--------|
E|--5555555---777777777---9-9-9-9-9-9-9-9---10101010101010--------|


      X  X    X X           
e|-------------------------|        
B|-------------------------|         
G|--7-7--777--7-7-7777-----|  
D|--7-7--777--7-7-7777-----|
A|--5-5--555--5-5-5555-----|
E|-------------------------|


then
   
e|-------------------------------|        
B|-------------------------------|         
G|-------------------------------|        
D|-4-4-----4--4-4-----4----------| 
A|-4-4----4-H-4-4----4--H--------|               
E|-2-2---2----2-2---2------------|


e|-------------------------------------------------|        
B|-------------------------------------------------|         
G|--444444444444444----7777777777777777------------|  
D|--444444444444444----7777777777777777------------|
A|--222222222222222----5555555555555555------------|
E|-------------------------------------------------|

 repeat verse and chorus

adlib


e|-----------------------------------------------|
B|------10---------------------------------------|
G|-----(11)-------(13)*13/p11-----------9-9/11---|
D|--11----------------------11-11-11-------------| 8x
A|-----------------------------------------------|
E|-----------------------------------------------|
 
g2 enters
e|----------------------------------------------------------------|        
B|----------------------------------------------------------------|         
G|----------------------------------------------------------------|  
D|--7777777---999999999---111111111111111---12121212121212--------|
A|--7777777---999999999---111111111111111---12121212121212--------|
E|--5555555---777777777---9-9-9-9-9-9-9-9---10101010101010--------|


Chorus Part 2 (Palm Muted) 
 I Feel numb I feel weird
   P.M----------------------------------------------------P.M
e|----------------------------------------------------------------|        
B|----------------------------------------------------------------|         
G|----------------------------------------------------------------|  
D|--7777777---999999999---111111111111111---12121212121212--------|
A|--7777777---999999999---111111111111111---12121212121212--------|
E|--5555555---777777777---9-9-9-9-9-9-9-9---10101010101010--------|


e|----------------------------------------------------------------|        
B|----------------------------------------------------------------|         
G|----------------------------------------------------------------|  
D|--7~-/--9~-/--11~-/--12~--------|
A|--7~-/--9~-/--11~-/--12~--------|
E|--5~-/--7~-/--9~--/--10~--------|


Repeat Chorus

Outro
 whoaaaa...ooohhhhhhhhh

Gtr 1
e|---------------------------------|        
B|---------------------------------|         
G|-----------66666666--------------|        
D|-44444444--66666666--------------| 4x
A|-44444444--44444444--------------|        
E|-22222222------------------------|


end--

Gtr 
e|-----------------------------------------------|
B|------10---------------------------------------|
G|-----(11)-------(13)*13p11---------------------|
D|--11----------------------11^~-----------------| 8x
A|-----------------------------------------------|
E|-----------------------------------------------|



add me sa friendster hehehe...
hi to mga lucenahin at  lalo na sa tga carmelite subd hehehe...
f_sario@yahoo.com

            
            
Suggest correction
Creating personal tab
Creating personal tab
You can edit any tab online and save it as your Personal.

You can edit, replace or remove any tab part or add personal notes – all changes will be seen only by you.

Personal tabs can be accessed anytime from any device, even offline.
Learn more »
comments
print report bad tab
3 comments total.
0 reply
be_silent 81 Mar 12, 2007 12:37 AM

BaSurAAARRRR!!!!!...(joWk)aUshiN mu Pa

0 reply
doobidoo 6,271 Mar 14, 2007 10:57 PM

inaamad nga ako...my version 2 naman...ganun din un???? mas mahaba lang ung kanya...hehehehe..

0 reply
supersario 64 Jun 06, 2007 12:26 AM

Auz nA ire Sa akin

guest
You may want to rate the tab now too:
select rating
Wanna post a correction for this tab? Suggest correction