Oops, an error
Loading. Please wait.

Nothing New ukulele

by Hilera
36 views 1 this week
no commentswrite comment
1 2 3 4 5
3 more votes to show rating
add to favorites
×
Save as Personal and add changes to this tab that will be seen only by you. Learn more ›
×
You can save this tab as Personal to edit and correct it or add notes. All changes will be seen only by you. Learn more »
launch autoscroll
font size
0
reset
transpose
0
reset
display chords
guitar tuner
edit
Autoscroll
slow
fast
+/-
esc
set tempo
stop
Strumming
There is no strumming pattern for this song yet. and get +5 IQ
Nothing New Tab by Hilera, www.Ultimate-Guitar.Com

Artist:Hilera
Song:Nothing New
Tabbed by: Ram Red (09196228339)
Email:alexisonfire066@yahoo.com

. - palm mute
x - dead string
/ - slide
~ - let it ring
b - bend


Standard Tuning

Intro

Gtr 1
e|---------------------------------------------------------------------------------|
B|-------10-9------------------------------------10-9------------------------------|
G|------------11------------9/-11-11-11-11------------11------------9/11-11-11-11--|
D|--/11b---------/11b11b11b-----------------/11b---------/11b11b11b----------------| 8x
A|---------------------------------------------------------------------------------|
E|---------------------------------------------------------------------------------|


Gtr 2 Enters the 4th time

e|------------------------------------------------|        
B|------------------------------------------------|         
G|--11-11-11-11-/-6-6-6-6--11-11-11-11-/-6-6-6-6--|        
D|--11-11-11-11---6-6-6-6--11-11-11-11---6-6-6-6--| 2x
A|---9--9--9--9-/-4-4-4-4---9--9--9--9-/-4-4-4-4--|        
E|------------------------------------------------|         

Verse 
 I never wanted to write...
e|--------------------------------------------------------------------------------------------|
B|--------------------------------------------------------------------------------------------|
G|--------------------------44444444-77777777--------------------------444444-77777777777777--|
D|--44-4-44-4-44-4-44-4-44--44444444-77777777---44-4-44-4-44-4-44-4-44-444444-77777777777777--|
A|--44-4-44-4-44-4-44-4-44--22222222-55555555---44-4-44-4-44-4-44-4-44-222222-55555555555555--| 
E|--22-2-22-2-22-2-22-2-22----------------------22-2-22-2-22-2-22-2-22------------------------| 
    ..   ..   ..   ..   ..                      ..   ..   ..   ..   ..

Chorus Part 1 
 I Feel numb I feel weird
e|-----------------------------          ----------------------------------|
B|-----------------------------          ----------------------------------|
G|--------------6666--7777-----          --------------6666--7x7x7x7x7x7---|
D|--7777--9999--6666--7777----- 3x Then  --7777--9999--6666--7x7x7x7x7x7---|
A|--7777--9999--4444--5555-----          --7777--9999--4444--5x5x5x5x5x5---|
E|--5555--7777-----------------          --5555--7777----------------------|
                                                             . . . . . .

Repeat Verse Riff 1x

Verse 2
 I never wanted to care
e|--------------------------------------------------------------------------------------|
B|--------------------------------------------------------------------------------------|
G|--------------------------44444444-77777777--------------------------444444-7x7x7x7x7-|
D|--44-4-44-4-44-4-44-4-44--44444444-77777777---44-4-44-4-44-4-44-4-44-444444-7x7x7x7x7-|
A|--44-4-44-4-44-4-44-4-44--22222222-55555555---44-4-44-4-44-4-44-4-44-222222-5x5x5x5x5-| 
E|--22-2-22-2-22-2-22-2-22----------------------22-2-22-2-22-2-22-2-22------------------| 
    ..   ..   ..   ..   ..                      ..   ..   ..   ..   ..        . . . . .

Repeat Chorus
Then Intro

Chorus Part 2 (Palm Muted) 
 I Feel numb I feel weird
e|----------------------------------------------|        
B|----------------------------------------------|
G|--------------6666--7777----------6~--7~7777--|        
D|--7777--9999--6666--7777--7~--9~--6~--7~7777--|
A|--7777--9999--4444--5555--7~--9~--4~--5~5555--|  
E|--5555--7777--------------5~--7~--------------|      
    ....  ....  ....  ....                ...

Repeat Chorus

Outro
 whoaaaa....

e|------------------------------------------------         -----------------------| 
B|------------------------------------------------         -------10-9------------|
G|--11-11-11-11-/-6-6-6-6--11-11-11-11-/-6-6-6-6--         ------------11---------|
D|---x--x--x--x---x-x-x-x---x--x--x--x---x-x-x-x-- 4x Then --/11b----------9/11b--|
A|---9--9--9--9-/-4-4-4-4---9--9--9--9-/-4-4-4-4--         -----------------------|
E|------------------------------------------------         -----------------------|


Lyrics

I never wanted to write
Something like this in a million years
But I'm here and I'll say it
ANd mean every word
And say that I
I Feel numb
I feel weird
I feel like someone's goin to get me
When I'm alone
It's typical I know but I
I feel dumb
I can't feel
Like another gum under your desk
I whine too much I know
It's typical I freakin know
I never wanted to care
About this and everything
But it's here and I'll say it
I'll play every note
And say that I

            
            
Suggest correction
Creating personal tab
Creating personal tab
You can edit any tab online and save it as your Personal.

You can edit, replace or remove any tab part or add personal notes – all changes will be seen only by you.

Personal tabs can be accessed anytime from any device, even offline.
Learn more »
Give kudos to tab author, rate the tab!
1 2 3 4 5
comments
print report bad tab
guest
Wanna post a correction for this tab? Suggest correction