Oops, an error
Loading. Please wait.

Nothing New bass

version 2
version 2

Whole song

by Hilera
109 views 3 this week
5 commentsread comments
1 2 3 4 5
3 more votes to show rating
add to favorites
×
Save as Personal and add changes to this tab that will be seen only by you. Learn more ›
×
You can save this tab as Personal to edit and correct it or add notes. All changes will be seen only by you. Learn more »
launch autoscroll
font size
0
reset
guitar tuner
edit
Autoscroll
slow
fast
+/-
esc
set tempo
stop
Author
Nothing New-Hilera
Tabbed by:jd garcia
hometown:ligao city
Email/friendster:jdgarcia1@yahoo.com.ph


Intro 1

G|------------------------------------------------|
D|------------------------------------------------|
A|------------4444-----------4444444--------------|
E|--9/--2222-----------2222-----------------------|
        ....  ....     ....
Intro 2

G|------------------------------------------------|
D|------------------------------------------------|
A|-------------4444444--------------4444444-------|
E|--2222222--------------2222222------------------|

Verse 1:

G|-----------------------------------------------------------------------------------------|
D|-----------------------------------------------------------------------------------------|
A|-------------------------222222222222-555555555555-------------222222222222- 555555555555|
E|--22-2-22-2-22-2-22-2-22-------------------22-2-22-2-22-2-22-2-22------------------------|

Chorus :

G|-----------------------------          ----------------------------------|
D|----------------------------- 3x Then  ----------------------------------|
A|-------------4444444--5555555------          --4444444--5x5x5x5x5x5x5x5x5|
E|5555555--7777777-----------------   -5555555--7777777--------------------|

Verse 2:

G|-----------------------------------------------------------------------------------------|
D|-----------------------------------------------------------------------------------------|
A|-------------------------222222222222-555555555555-------------222222222222- 555555555555|
E|--22-2-22-2-22-2-22-2-22-------------------22-2-22-2-22-2-22-2-22------------------------|

Chorus :

G|-----------------------------          ----------------------------------|
D|----------------------------- 3x Then  ----------------------------------|
A|-------------4444444--5555555------          --4444444--5x5x5x5x5x5x5x5x5|
E|5555555--7777777-----------------   -5555555--7777777--------------------|

Outro

G|------------------------------------------------|
D|------------------------------------------------|
A|-------------4444444--------------4444444-------|
E|--2222222--------------2222222-------------2----|
                                             .
                       

suppot opm bands!!!rak ON
            

            
            
Suggest correction
Creating personal tab
Creating personal tab
You can edit any tab online and save it as your Personal.

You can edit, replace or remove any tab part or add personal notes – all changes will be seen only by you.

Personal tabs can be accessed anytime from any device, even offline.
Learn more »
Give kudos to tab author, rate the tab!
1 2 3 4 5
comments
print report bad tab
5 comments total. Showing first comments.
0 reply
krung 135 Jun 29, 2007 08:49 PM

rakenrol

0 reply
krung 135 Jun 29, 2007 08:49 PM

putang ina mo astig toh

0 reply
krung 135 Jun 29, 2007 08:49 PM

super astig wahahahaha

guest
You may want to rate the tab now too:
select rating
Wanna post a correction for this tab? Suggest correction