Oops, an error
Loading. Please wait.

What A Beautiful Name tab

2,854 views 171 this week
1 commentread comment
1 2 3 4 5
x 4
add to favorites
×
Save as Personal and add changes to this tab that will be seen only by you. Learn more ›
×
You can save this tab as Personal to edit and correct it or add notes. All changes will be seen only by you. Learn more »
launch autoscroll
font size
0
reset
how to read this tab
guitar tuner
edit
Autoscroll
slow
fast
+/-
esc
set tempo
stop
Author
Difficulty
[Verse 1]
  D                                               G       Bm        A
e|--------------------------------|-------------|------------------|-----|
B|--------------------------------|-------------|--0---------------|-----|
G|--------------------------------|----------2--|------2---0-------|-----|
D|-4---4----4---4-----2--2---0--0-|------4------|---------------4--|-2---|
A|--------------------------------|-0-----------|------------------|-----|
E|--------------------------------|-------------|------------------|-----|
   You were the world at the be-gin-ing, one with God the Lord most high.

   Bm                  A/C#       D              G          Bm      A
e|------------------------------|--------------|------------------|------|
B|------------------------------|-----------0--|-0----------------|------|
G|------------------------------|--------------|---------2--0-----|------|
D|-0----2---4---4---2--2--0---0-|-------4------|----------------4-|-0----|
A|------------------------------|-0------------|------------------|------|
E|------------------------------|--------------|------------------|------|
   Your hid-den glo-ry in cre-a---tion   Now re - vealed in You our christ.

    A                               D
e|-----------------------------------|
B|-----------------------------------|
G|-0----0--0-----0----0----0---------|
D|-----------------------------4--4--|
A|-----------------------------------|
E|-----------------------------------|
   What a beau - ti - ful Name it is,

[Chorus]
   D                               A                 Bm              A
e|-------------------------------|-----------------|--------------------|
B|-------------------------------|-----------------|--------------------|
G|-------------------------------|--0---0----0---0-|--------------------|
D|-4----4--4----4--4---4----2--2-|-----------------|-4---2-------0------|
A|-------------------------------|-----------------|----------------2---|
E|-------------------------------|-----------------|--------------------|
   What a  beau-ti-ful name it is,  the Name of  Je- sus Christ, my King.

   G                               D/F#
e|-------------------------------|-----------------------------|
B|-------------------------------|-----------------------------|
G|-0----0--0----0--0---0---------|-------2---2---2-------------|
D|---------------------------4-4-|--4-------------------0--2---|
A|-------------------------------|-----------------------------|
E|-------------------------------|-----------------------------|
   What a  beau-ti-ful Name it is,  noth-ing com-pares to  this. 

   A                                Bm       A        G
e|--------------------------------|-----------------|-----|
B|--------------------------------|-----------------|-----|
G|-0----0--0----0--0---0----------|-----------------|-----|
D|--------------------------4---4-|--4---2----4---2-|-0---|
A|--------------------------------|-----------------|-----|
E|--------------------------------|-----------------|-----|
   What a  beau-ti-ful Name it  is,  the Name of  Je- sus.

[Verse 2]
   D                                                       G           Bm        A
e|---------------------------------------|--------------|----------------------|-----|
B|---------------------------------------|--------------|--0-------------------|-----|
G|---------------------------------------|-----------2--|------2-------0-------|-----|
D|-4---4----4---4----2----2------0----0--|-------4------|-------------------4--|-2---|
A|---------------------------------------|-0------------|----------------------|-----|
E|---------------------------------------|--------------|----------------------|-----|
       You  did-n't  want heaven with-out  us so Je-sus    You brought heav-en   down,

   Bm                         A/C#      D                G      Bm        A
e|------------------------------------|----------------|---------------|------|
B|------------------------------------|-----------0----|-0-------------|------|
G|------------------------------------|----------------|-----2--0------|------|
D|-0--2---4---4------2----2----0----0-|------4---------|-------------4-|-0----|
A|------------------------------------|--0-------------|---------------|------|
E|------------------------------------|----------------|---------------|------|
   My sin was great, Your love was great-er  what could  sep-a- rate us  now?

   A                               D
e|----------------------------------|
B|----------------------------------|
G|-0----0--0---0----0--0------------|
D|---------------------------4--4---|
A|----------------------------------|
E|----------------------------------|
   What a  won-der-ful Name it  is,

[Chorus]
  D                                A                 Bm              A
e|-------------------------------|-----------------|--------------------|
B|-------------------------------|-----------------|--------------------|
G|-------------------------------|--0---0----0---0-|--------------------|
D|-4----4--4----4--4---4----2--2-|-----------------|-4---2-------0------|
A|-------------------------------|-----------------|----------------2---|
E|-------------------------------|-----------------|--------------------|
   What a  beau-ti-ful name it is,  the Name of  Je- sus Christ, my King.

   G                               D/F#
e|-------------------------------|-----------------------------|
B|-------------------------------|-----------------------------|
G|-0----0--0----0--0---0---------|-------2---2---2-------------|
D|---------------------------4-4-|--4------------------0---2---|
A|-------------------------------|-----------------------------|
E|-------------------------------|-----------------------------|
   What a  beau-ti-ful Name it is,  noth-ing com-pares to  this. 

   A                                Bm       A        G
e|--------------------------------|-----------------|-----|
B|--------------------------------|-----------------|-----|
G|-0----0--0----0--0---0----------|-----------------|-----|
D|--------------------------4---4-|--4---2----4---2-|-0---|
A|--------------------------------|-----------------|-----|
E|--------------------------------|-----------------|-----|
   What a  beau-ti-ful Name it  is,  the Name of  Je- sus.

   G                                 Bm       A      G
e|---------------------------------|---------------|----|
B|---------------------------------|---------------|----|
G|-0-----0--0---0---0---0----------|---------------|----|
D|---------------------------4--4--|-4---2----4--2-|-0--|
A|---------------------------------|---------------|----|
E|---------------------------------|---------------|----|
    What a  won-der-ful Name it is,  the Name of Je- sus.

[Instrumental]
   G            A             Bm7            F#
e|-------------|-------------|-------------|------------|
B|-------------|-------------|-------------|------------|
G|-2--2--0--0--|-------------|-2--2--0--0--|------------|
D|-------------|-4--4--2--2--|-------------|-4--4-------|
A|-------------|-------------|-------------|-------3--3-|
E|-------------|-------------|-------------|------------|

   G            A             Bm7            F#
e|-------------|-------------|-------------|------------|
B|-------------|-------------|-------------|------------|
G|-2--2--0--0--|-------------|-2--2--0--0--|------------|
D|-------------|-4--4--2--2--|-------------|-4--4-------|
A|-------------|-------------|-------------|-------3--3-|
E|-------------|-------------|-------------|------------|

   G             A            Bm7         A
e|-------------|-------------|-------------|---------------------|
B|-------------|-------------|-------------|---------------------|
G|-2--2--0--0--|-------------|-2--2--0--0--|-------2---------2---|
D|-------------|-4--4--2--2--|-------------|-4-----------4-------|
A|-------------|-------------|-------------|---------------------|
E|-------------|-------------|-------------|---------------------|
                                             Death could not hold
[Bridge]
   G                          A                            Bm7
e|--------------------------|----------------------------|-----------------|
B|--------------------------|----------------------------|-----------------|
G|---------------2-------2--|--------------0-----2---2---|-2--0------------|
D|-4----0---4---------4-----|-4-----4---4----------------|--------4---2----|
A|--------------------------|----------------------------|-----------------|
E|--------------------------|----------------------------|-----------------|
   You, the veil tore be-fore You. You si- lence the boast of sin and grave.

   F#m7                  G                          A
e|---------------------|--------------------------|---------------------|
B|---------------------|--------------------------|---------------------|
G|----------2-------2--|----------------2-------2-|-2------0---2---2----|
D|-0---4--------4------|-4---0---4---------4------|----4----------------|
A|---------------------|--------------------------|---------------------|
E|---------------------|--------------------------|---------------------|
   The heav-ens are roar-ing the praise of Your glo-ry for You are raised

  Bm7               G               A                   Bm7
e|----------------|---------------|--------------------|---------------|
B|----------------|---------------|--------------------|---------------|
G|-2--0-----------|-----2-------2-|----------2-------2-|------------0--|
D|---------4--2---|-4--------4----|-4----4--------4----|-4---4--4------|
A|----------------|---------------|--------------------|---------------|
E|----------------|---------------|--------------------|---------------|
   To life a- gain. You have no ri- val, You have no e - qual.  Now and 

  Bm7      F#m7              G                    A
e|-------|-----------------|--------------------|-------------------------|
B|-------|-----------------|--------------------|-------------------------|
G|-2---2-|-2--0------------|----------2------2--|-------------2---------2-|
D|-------|---------4---2---|-0--4--------4------|-4--0-4--------4---4-----|
A|-------|-----------------|--------------------|-------------------------|
E|-------|-----------------|--------------------|-------------------------|
   For-ev- er God, You reign.   Yours is the king-dom. Yours is the glo-ry,

  Bm7                A
e|-----------------|-------------------|
B|-----------------|-------------------|
G|-------0--2---2--|-2---0-------------|
D|-4---------------|----------4---2----|
A|-----------------|-------------------|
E|-----------------|-------------------|
   Yours is the Name a - bove all names.

[Chorus]
   A                             D
e|-----------------------------|-----------------------------|
B|-----------------------------|-----------------------------|
G|-0----0-0---0---0--0---------|-----------------------------|
D|------------------------4--4-|-4----4-4---4--4---4----2--2-|
A|-----------------------------|-----------------------------|
E|-----------------------------|-----------------------------|
   What a pow-er-ful Name it is, what a pow-er-ful Name it is.

  A               Bm7        A        G
e|---------------|------------------|------------------------------|
B|---------------|------------------|------------------------------|
G|-0---0----0--0-|------------------|--0----0-0---0--0---0---------|
D|---------------|-4---2------0-----|-------------------------4--4-|
A|---------------|---------------2--|------------------------------|
E|---------------|------------------|------------------------------|
   The Name of Je- sus Christ my King. What a pow-er-ful Name it is,

   D/F#                         A
e|----------------------------|-----------------------------|
B|----------------------------|-----------------------------|
G|------2---2---2-------------|-0----0-0---0--0---0---------|
D|-4------------------0-2-----|------------------------4--4-|
A|----------------------------|-----------------------------|
E|----------------------------|-----------------------------|
   Noth-ing can stand a-gainst. What a pow-er-ful Name it is,
                 
   Bm7         A
e|-------------------|
B|-------------------|
G|-------------------|
D|-4---2----4--2---0-|
A|-------------------|
E|-------------------|
   The Name of Je- sus. 

[Bridge]
   G               A
e|---------------|------------------------|
B|---------------|------------------------|
G|-----2-------2-|----------2-------2-----|
D|-4--------4----|-4----4--------4----4---|
A|---------------|------------------------|
E|---------------|------------------------|
   You have no ri- val, You have no e-qual,

  A                    Bm7             F#m7               G
e|---------------|-------------------|----------------------|
B|---------------|-------------------|----------------------|
G|-----0---2---2-|-2---0-------------|-------2------2-------|
D|-4-------------|----------4---2----|-4--------4--------4--|
A|---------------|-------------------|----------------------|
E|---------------|-------------------|----------------------|
   Now and for-ev- er, God, You reign. Yours is the king-dom,

  G                 A                    Bm7          A
e|----------------|---------------------|---------------|
B|----------------|---------------------|---------------|
G|-------2------2-|-2---------0--2---2--|-2--0----------|
D|-4--------4-----|-----4---------------|---------4---2-|
A|----------------|---------------------|---------------|
E|----------------|---------------------|---------------|
   Yours is the glo-ry, Yours is the Name a-bove all names.

[Chorus]
  A                              D
e|-----------------------------|-----------------------------|
B|-----------------------------|-----------------------------|
G|-0----0-0---0--0---0---------|-----------------------------|
D|------------------------4--4-|-4----4-4---4--4---4----2--2-|
A|-----------------------------|-----------------------------|
E|-----------------------------|-----------------------------|
   What a pow-er-ful Name it is, what a pow-er-ful Name it is,

   A              Bm7        A       G
e|---------------|------------------|------------------------------|
B|---------------|------------------|------------------------------|
G|-0---0----0--0-|------------------|--0----0-0---0--0---0---------|
D|---------------|-4---2------0-----|-------------------------4--4-|
A|---------------|---------------2--|------------------------------|
E|---------------|------------------|------------------------------|
   The Name of Je- sus Christ my King. What a pow-er-ful Name it is,

  D/F#                          A
e|----------------------------|-----------------------------|
B|----------------------------|-----------------------------|
G|------2---2---2-------------|-0----0-0---0--0---0---------|
D|-4------------------0-2-----|------------------------4--4-|
A|----------------------------|-----------------------------|
E|----------------------------|-----------------------------|
   Noth-ing can stand a-gainst. What a pow-er-ful Name it is,

 Bm7         A         G
e|---------------|----------------------------------|
B|---------------|----------------------------------|
G|---------------|------0----0-0---0--0---0---------|
D|-4---2----4--2-|-0---------------------------4--4-|
A|---------------|----------------------------------|
E|---------------|----------------------------------|
   The Name of Je- sus. What a pow-er-ful Name it is,

[Tag]
  Bm7         A         G                            Bm7         A    G
e|---------------|----------------------------------|------------------|
B|---------------|----------------------------------|------------------|
G|---------------|------0----0-0---0--0---0---------|------------------|
D|-4---2----4--2-|-0---------------------------4--4-|-4---2----4--2--0-|
A|---------------|----------------------------------|------------------|
E|---------------|----------------------------------|------------------|
   The Name of Je- sus. What a pow-er-ful Name it is, the Name of Je-sus.


            
            
Suggest correction
Creating personal tab
Creating personal tab
You can edit any tab online and save it as your Personal.

You can edit, replace or remove any tab part or add personal notes – all changes will be seen only by you.

Personal tabs can be accessed anytime from any device, even offline.
Learn more »
comments
print report bad tab
1 comment total.
0 reply
megalucario1984 10 Apr 29, 2017 11:09 AM

Nice

guest
You may want to rate the tab now too:
select rating
Wanna post a correction for this tab? Suggest correction