Oops, an error
Loading. Please wait.

Cornerstone Tab

version 3
version 3

Whole song

  • Complete live version for one guitarist. Not an adaptation.

Interactive

73 views 1 this week
no commentswrite comment
1 2 3 4 5
3 more votes to show rating
add to favorites
launch autoscroll
font size
0
reset
how to read this tab
guitar tuner
Autoscroll
slow
fast
+/-
esc
set tempo
stop
Help us to improve Ultimate-Guitar.com Take our survey!
×
Author
Difficulty
novice
About this tab version
Complete live version for one guitarist. Not an adaptation. Was this info helpful? Yes No
Key: C

[Intro]

e|-----------------------------------------------------------------|
B|--6-6-5-5---------6-6-5-5--------6-6-5-5---------6-6-5-5---------|
G|----------7-7-5-5---------7-7-5-5--------7-7-5-5---------7-7-5-5-|
D|-----------------------------------------------------------------|
A|-----------------------------------------------------------------|
E|-----------------------------------------------------------------|

[Verse 1]
    C    F   G           Am  F   G   C
e|--0----0---3------3----0---0---3---0-----------------------------------|
B|--1----1---3--------3--1---1---3---1-----------------------------------|
G|--0----2---0----0------2---2---0---0-----------------------------------|
D|--2----3---0--0--------2---3---0---2--3-3-2-2-0-0-----3-3-2-2-0-0------|
A|--3----3---2-----------0---3---2---3--------------3-3-------------3-3--|
E|--0----0---3-----------0---0---3---0-----------------------------------|

Repeat [Verse 1]

[Chorus 1]
e|-----------------------------------------------------------------|
B|-----------------------------------------------------------------|
G|-----------------------------------------------------------------|
D|-7-7-7-7s10-10-10-10-9-9-9-9-5-5-5-5-7-7-7-7s10-10-10-10-9-9-9-9-|
A|-----------------------------------------------------------------|
E|-----------------------------------------------------------------|
                                                                                       C    
e|-------------------------------------------------------------------------------------0--|
B|-------------------------------------------------------------------------------------1--|
G|-------------------------------------------------------------------------------------0--|
D|-14-14-12-12-7-7-7-7s10-10-10-10-9-9-9-9-9-9-9-9-9-----3-3-2-2-0-0-----3-3-2-2-0-0---2--|
A|-------------------------------------------------------------------3-3-------------3-3--|
E|-------------------------------------------------------------------------------------0--|

[Verse 2]
    C    F   G           Am  F   G   C  F  G  C
e|--0----0---3------3----0---0---3---0--0--3--0---------|
B|--1----1---3--------3--1---1---3---1--1--3--1---------|
G|--0----2---0----0------2---2---0---0--2--0--0---------|
D|--2----3---0--0--------2---3---0---2--3--0--2---------|
A|--3----3---2-----------0---3---2---3--3--2--3---------|
E|--0----0---3-----------0---0---3---0--0--3--0---------|

[Chorus 2]

e|-8--8--8--8--7--7--8--8--8--8--8--8--7--7--8--8--8--8--8--8--7--7--8--8--8--8--8--8--7--7--8--8-----|
B|--6--6--8--8--8--8--8--8--6--6--8--8--8--8--8--8--6--6--8--8--8--8--8--8--6--6--8--8--8--8--8--8----|
G|----------------------------------------------------------------------------------------------------|
D|----------------------------------------------------------------------------------------------------|
A|----------------------------------------------------------------------------------------------------|
E|----------------------------------------------------------------------------------------------------|

[Interlude]
e|-----------------------------------------------------------------|
B|-----------------------------------------------------------------|
G|-5-5--10-10--9-9--7-7--5-5---------------------------------------|
D|-----------------------------------------------------------------|
A|-3-3--8--8---8-8--5-5--3-3---------------------------------------|
E|-----------------------------------------------------------------| Repeat to end of interlude

[Chorus 3} (thanks benlind84)
e|-8---8---7---8--8---8---7---8---8---8---7---8------------------------------------------------|
B|-6---8---8---8--6---8---8---8---6---8---8---8------------------------------------------------|
G|-5---5---7---7--5---5---7---7---5---5---7---7------------------------------------------------|
D|------------------------------------------------5--10-10--9-9--7-7--5-5--10-10--9-9--7-7--5-5|
A|---------------------------------------------------------------------------------------------|
E|------------------------------------------------3--8--8---7-7--5-5--3-3--8--8---7-7--5-5--3-3| Repeat

[Verse 3]

none

Interlude 2:

e|-------------8-8-8-8-7-7-7-7---------------------8-8-8-8-7-7-12-12-10-10-----|
B|-10-10-10-10-----------------8-8-8-8-10-10-10-10-----------------------------|
G|-----------------------------------------------------------------------------|
D|-----------------------------------------------------------------------------|
A|-----------------------------------------------------------------------------|
E|-----------------------------------------------------------------------------| 

e|-------------8-8-8-8-7-7-7-7---------------------8-8-8-8-7-7-7-7-8-8-8-8-8-8-8-8-8-8-8-8-8-8-8-8-8-8-8-8|
B|-10-10-10-10-----------------8-8-8-8-10-10-10-10--------------------------------------------------------|
G|--------------------------------------------------------------------------------------------------------|
D|--------------------------------------------------------------------------------------------------------|
A|--------------------------------------------------------------------------------------------------------|
E|--------------------------------------------------------------------------------------------------------|

e|-------------8-8-8-8-7-7-7-7---------------------8-8-8-8-7-7-7-7-8-8-8-8-8-8-8-8-8-8-8-8-8-8-8-8-8-8-8-8|
B|-10-10-10-10-----------------8-8-8-8-10-10-10-10--------------------------------------------------------|
G|--------------------------------------------------------------------------------------------------------|
D|--------------------------------------------------------------------------------------------------------|
A|--------------------------------------------------------------------------------------------------------|
E|--------------------------------------------------------------------------------------------------------|


[Chorus 3]

e|-8---8---7---8--8---8---7---8---8---8---7---8--------------------------------------------------------------|
B|-6---8---8---8--6---8---8---8---6---8---8---8--------------------------------------------------------------|
G|-5---5---7---7--5---5---7---7---5---5---7---7--------------------------------------------------------------|
D|-----------------------------------------------5--10-10--9-9--7-7--5-5--10-10--9-9--7-7-5-5-5-5-5-5-5-5-5-5|
A|---------------------------------------------------------------------------------------------------------=-|
E|-----------------------------------------------3--8--8---7-7--5-5--3-3--8--8---7-7--5-5-3-3-3-3-3-3-3-3-3-3|


[Outro]

e|---------------------|
B|---------------------|
G|---------------------|
D|-5-5-5-5-5-5-5-5-5-5-|
A|---------------------|
E|-3-3-3-3-3-3-3-3-3-3-|
Suggest correction
Give kudos to tab author, rate the tab!
1 2 3 4 5
comments
print report bad tab
guest
You may want to rate the tab now too:
select rating
Wanna post a correction for this tab? Suggest correction